Ac Dc - Big Balls Chords & Tabs

 

Big Balls Chords & Tabs

Ac Dc Chords & Tabs

Version: 2 Type: Bass Tab 1 rating
1 star 2 stars 3 stars 4 stars 5 stars
comments

Big Balls Bass Tab

AC/DC - Big Balls
Probably the greatest song ever.

G-----------------|------------------|
D-2---------2-1-0-|-------------0-1--|
A-----------------|-3---------3------|
E-----------------|------------------|
  ^   ^   ^   ^     ^   ^   ^   ^
[ Tab from: http://www.guitartabs.cc/tabs/a/ac_dc/big_balls_btab_ver_2.html ]
G-----------------|------------------|
D-2---------2-1-0-|-------------0-1--|
A-----------------|-3---------3------|
E-----------------|------------------|
  ^   ^   ^   ^     ^   ^   ^   ^

G-----------------|------------------|
D-2---------2-1-0-|------------------|
A-----------------|-3-----------3/---|
E-----------------|------------------|
  ^   ^   ^   ^     ^   ^   ^   ^

G-----------------|------------------|
D-----------------|-----------------.|
A-5-------5-------|-2-2-2-2-2-------.|
E-----------------|------------------|
  ^   ^   ^   ^     ^   ^   ^   ^
Comments