Ac Dc - Ballbreaker Chords & Tabs

 

Ballbreaker Chords & Tabs

Ac Dc Chords & Tabs

Version: 2 Type: Tab 0 ratings
1 star 2 stars 3 stars 4 stars 5 stars
comments

Ballbreaker Tab

Ballbreaker by AC/DC
[ Tab from: http://www.guitartabs.cc/tabs/a/ac_dc/ballbreaker_tab_ver_2.html ]
|---3-------3----
|---3-------3----
|---0-------0----
|-2-0--2--2-0--2-
|-2----2--2----2-
|-0-3--0--0-3--0-

|--------3-3----3---
|-2-2--2-3-3--2-3---
|-2-2--2-0-0--2-0---
|-2-2--2-0-0--2-0-2-
|-0-0--0------0---2-
|--------3-3----3-0-
Comments