Ac Dc - Ballbreaker Chords & Tabs

 

Ballbreaker Chords & Tabs

Ac Dc Chords & Tabs

Version: 1 Type: Tab 1 rating
1 star 2 stars 3 stars 4 stars 5 stars
comments

Ballbreaker Tab

   
AC/DC - Ballbreaker

It's good song, but nobody can't make tab so my guitar teacher Kacele make
one. It can be bad position but note is good.Comment you can send to my mail
harlis@jonava.net


Intro
riff a
E||-------------------
B||-3-2--2-0--2-0-----
G||-4-2--2-0--2-0-----
D||-------------------
A||----------------2--
E||----------------0--   x 2
[ Tab from: http://www.guitartabs.cc/tabs/a/ac_dc/ballbreaker_tab.html ]
Verse
riff b
E||----------|-----
B||----------|-----
G||----------|-----
D||----------|-----
A||-2-2-2--2-|-----
E||-0-0-3--0-|----- x 18

riff c
E||------------------------
B||------------------------
G||------------------------
D||------------------------
A||-5-5-5-5-5--5--5--5-2---
E||-3-3-3-3-2--3--2--3-0--- x 4

When riff c goes 4 time then isn`t full riff

Solo goes on Blues Pentatonic 
Comments