Ac Dc - Ballbreaker Chords & Tabs

 

Ballbreaker Chords & Tabs

Ac Dc Chords & Tabs

Version: 1 Type: Bass Tab 0 ratings
1 star 2 stars 3 stars 4 stars 5 stars
comments

Ballbreaker Bass Tab

Apart from the intro (more than two different notes), the rest of the song is very simple.


intro
G|---------------------|
D|---------------------|
A|---2-0-0----0------- |x2
E|-----------3----3-0--|

*on second time, let the E ring
[ Tab from: http://www.guitartabs.cc/tabs/a/ac_dc/ballbreaker_btab.html ]
verses/chorus/solo
G|----------------------|
D|----------------------|
A|----------------------|
E|--0-0-0-0-0-0-0-0-----|

pre-chorus
G|------------------------|
D|------------------------|
A|------------------------| x4
E|-3-3-3-3-5-3-3-5-5-3-0--|


Enjoy

By Lemonidas
Comments