Ac Dc - Back In Black Chords & Tabs

 

Back In Black Chords & Tabs

Ac Dc Chords & Tabs

Version: 5 Type: Tab 1 rating
1 star 2 stars 3 stars 4 stars 5 stars
comments

Back In Black Tab

   
Back In Black
by AC/DC
from the 1980 album BACK IN BLACK,submitted by sugar_skier

KEY:
 T = play with thumb
 / = slide up
 \ = slide down
 ^ = bend 	^q = quarter tone	^h = half tone		^F = full tone
	if letter is above the fret #, note is bent THEN picked
 h = hammer
 p = pull-off
 g = grace note - written above note to be 'graced'
 ~ = vibrato

intro gos alittle somethin like this...
---------------------|-------3-0------------|
---------------------|-----------3-0--------|
------7-7-7----------|---------------2^F^p0-|
--2---7-7-7--7-7-7---|----------------------|                      
--2---5-5-5--7-7-7---|----------------------|
--0----------5-5-5---|----------------------|
[ Tab from: http://www.guitartabs.cc/tabs/a/ac_dc/back_in_black_tab_ver_5.html ]
---------------------|------------------------------------|
---------------------|------------------------------------|
------7-7-7----------|------------------------------------|
--2---7-7-7--7-7-7---|------------------------------------|
--2---5-5-5--7-7-7---|------------------------------------|
--0----------5-5-5---|----7--4--7--5--7--6--7--7----------|

---------------------|-------3-0------------|
---------------------|-----------3-0--------|
------7-7-7----------|---------------2^F^p0-|
--2---7-7-7--7-7-7---|----------------------|                      
--2---5-5-5--7-7-7---|----------------------|
--0----------5-5-5---|----------------------|

---------------------|------------------------------------|
---------------------|------------------------------------|
------7-7-7----------|------------------------------------|
--2---7-7-7--7-7-7---|------------------------------------|
--2---5-5-5--7-7-7---|------------------------------------|
--0----------5-5-5---|----7--4--7--5--7--6--7--7----------|

The Chorus:
----------------|-----|--3-----------|------|--3--|-------|
----------------|-----|--3--3--------|------|--3--|-3-3-3-|
--2-----4--2--4-|-----|--0--2--2---2-|-----|--0--|-2-2-2--|
--2--2--4--2--4-|-----|-----0--2---2-|-----|--0--|-0-0-0--|
--0--2--2--0--2-|-----|--------0---0-|------|-----|-------|
-----0----------|-----|----------3---|------|--3--|-------|

right me if im wrong.Rock on
Comments