Ac Dc - Back In Black Chords & Tabs

 

Back In Black Chords & Tabs

Ac Dc Chords & Tabs

Version: 2 Type: Tab 8 ratings
1 star 2 stars 3 stars 4 stars 5 stars
comments

Back In Black Tab

Back in Black - ACDC

Here's Back in Black. First the two solos then the complete rhythm guitar part including the main the riff.

My Rig:
Squire Telecaster
Marshall 50 watt amp
Morley wah wah

My Favourite Bands:
Primus
Clutch
No Doubt

My Favourite guitar websites:
http://www.tabclawer.com    - good tab site
http://www.nodoubt.com   - no doubt's official site
http://www.guitarandbass.co.uk   - brilliant guitar lesson site

Solo 1                                                        
E||----------------------|------------------------------|
B||----------------------|------------------------------|
G||----------------------|----------------0-2-3h2h0-2---|
D||----------------------|--------------2-------------2-|
A||-----7~-----5--5~-----|--4--4~-----2-----------------|
E||--0-------------------|------------------------------|


                                                
----------------------|------------------------|
----------------------|------------------------|
----------------------|-------------7--7--7--7-|
----------------------|------------------------|
-----7~-----5--5~-----|--4--4~-----------------|
--0-------------------|------------------------|


                                                                   
------------------------|-----------------------------------------|
-------------8----------|----8-10h11h10h8-10-8b-------------------|
---7b------7b--7b--9~---|--9-------------------9-7-9~----12b---12-|
------------------------|-----------------------------------14----|
-----------------0------|-----------------------------------------|
------------------------|-----------------------------------------|


                                   
----------------------------------|
------15-15------15---------------|
--14b----14b--------14r-12-14~--0-|
----------------------------------|
----------------------------------|
----------------------------------|


                                          
-----------------------------------------|
-------------------------------15--------|
----12-------12----14-12-14-14b---14b----|
--x-12h14-14----14-----------------------|
-----------------------------------------|
-----------------------------------------|


                                               
------12-12-------------12--------------------|
---12-------15b15b-15b-----15h12----12--------|
---------------------------------14----12-14b-|
----------------------------------------------|
----------------------------------------------|
----------------------------------------------|


                                          
---------15------------------------------|
--15-------------------------------------|
-----14b----14r-12-14----12-14~----------|
----------------------14-----------14-14-|
-----------------------------------------|
-----------------------------------------|


                                              
---------------------------------------------|
--12----14-------------15--------------------|
--12----14----12h14-14b---14r-12-------------|
-----14----14--------------------14~14~------|
-----------------------------------------x-x-|
---------------------------------------------|


                                                                   
-------------12------------------------|--------------0-----0~----|
----15b---------15h12----12------------|--0---3-5~----3/2-3-3~----|
----------------------14----12-----2h0-|----4---------------------|
--x----------------------------14/-----|--------------------------|
--x------------------------------------|--------------------------|
---------------------------------------|--------------------------|


                                                            
--0---0-0~----------12-----------|--0----------0----0~-----|
--2h0-2-2~-------12----15b--15/--|--5-3--5~----3/2--3~--3~-|
--------------14---------------0-|-------------------------|
---------------------------------|-------------------------|
---------------------------------|-------------------------|
---------------------------------|-------------------------|


                                                                     
--0-0--0~------------------12/|------------------|------------------|
--2h0--2~----x-15---15--15----|------------------|------------------|
-------------x-14r--14b-14b---|------------------|------------------|
------------------------------|------------------|------------------|
------------------------------|------------------|------------------|
------------------------------|------------------|------------------|





Solo 2                                                                     
--------------------|----------------------|------------------------|
--------13b---------|--12b-------------12--|--10~-------------------|
--------------------|----------------------|------------------------|
--------------------|----------------------|------------------------|
--------------------|----------------------|------------------------|
--------------------|----------------------|------------12/---x--x--|


                                                   
-------------0-----------|--0-----0~-----7--------|
--5h3--5~----3h2-2-3~----|--2h0-0-2/-----8b-------|
-------------------------|-------------------9/---|
-------------------------|------------------------|
-------------------------|------------------------|
-------------------------|------------------------|


                                                           
--------------0-----0~----|--0------------------12--------|
--5h3-3-5~----3h2-2-3~----|--2h0-0-2~------15b-----12-15b-|
--------------------------|--------------x----------------|
--------------------------|-------------------------------|
--------------------------|-------------------------------|
--------------------------|-------------------------------|


                                     
---------------------------------12-|
---15b15b----15b15b15b15b15b15b-----|
------------------------------------|
------------------------------------|
------------------------------------|
------------------------------------|


                                         
--12------------------------15b-15b--15b|
-----15h12----12------------------------|
-----------14----12-14/-----------------|
----------------------------------------|
----------------------------------------|
----------------------------------------|


                                                                      
---15-12-15h12----12--------------------------------------------------
---------------15----15h12-15h12----12--------------------------------
---------------------------------15----15h14h12h14h12----14-----------
------------------------------------------------------14----14h12h14h1
----------------------------------------------------------------------
----------------------------------------------------------------------


                                         
----------------------------------------|
-------------------------------------20-|
----------------------------------------|
--12b-12-12-12--12--12--12--12/---------|
----------------------------------------|
----------------------------------------|


                                    
-----------------------------------|
--20b----------20b--------------20-|
------21--21--------21--19-21~-----|
-----------------------------------|
-----------------------------------|
-----------------------------------|


                                                 
------------------------------------------------|
---20-20----20-20-20----20-20-20----20-20-20----|
---------21----------21----------21----------21-|
------------------------------------------------|
------------------------------------------------|
------------------------------------------------|


                                               
---------------------------------22-----22----|
--20-20-20----20-20-20----20-22b----22b----22b|
-----------21----------21---------------------|
----------------------------------------------|
----------------------------------------------|
----------------------------------------------|


                                         
---22-----22-----22-----22-----22----19-|
------22b----22b----22b----22b----22b---|
----------------------------------------|
----------------------------------------|
----------------------------------------|
----------------------------------------|


                                                 
--22-------22-------------------22-19----19-----|
--22b24-24-22b24-24-22b24-24-22b------22b----22b|
------------------------------------------------|
------------------------------------------------|
------------------------------------------------|
------------------------------------------------|


                                             
--19-19----19-----22-----19-----19----------|
--------22b----22b----22b----22b---24-22h19-|
--------------------------------------------|
--------------------------------------------|
--------------------------------------------|
--------------------------------------------|


                                                 
------------------------------------------------|
--20----22--20----------------------------------|
-----21--------21-21-19-21~---19-16/12----14-12-|
---------------------------------------14-------|
------------------------------------------------|
------------------------------------------------|


                            
--------------------------||
--------------------------||
-----12-------------------||
--14----14--14~-----------||
--------------------------||
--------------------------||



Rhythm Guitar Part
                                               
E||-------x---------x----|-------x------------|
B||-------x---------x----|-------x------------|
G||--x----x----x----x----|--x----x------------|
D||--x---------x---------|--x-----------------|
A||--x---------x---------|--x-----------------|
E||----------------------|--------------------|


                                                   
------------------------|------------3-0----------|
---------3-3-3----------|----------------3-0------|
---------2-2-2------2-2-|--2-----------------2r-0-|
--2------0-0-0------2-2-|--2----------------------|
--2-----------------0-0-|--0----------------------|
--0---------------------|-------------------------|


                                                     
------------------------|---------------------------|
---------3-3-3----------|---------------------------|
---------2-2-2------2-2-|--2------------------------|
--2------0-0-0------2-2-|--2------------------------|
--2-----------------0-0-|--0----2----2----2----2----|
--0---------------------|---------4----5----6----7/-|


                                                   
------------------------|------------3-0----------|
---------3-3-3----------|----------------3-0------|
---------2-2-2------2-2-|--2-----------------2r-0-|
--2------0-0-0------2-2-|--2----------------------|
--2-----------------0-0-|--0----------------------|
--0---------------------|-------------------------|


                                                     
------------------------|---------------------------|
---------3-3-3----------|---------------------------|
---------2-2-2------2-2-|--2------------------------|
--2------0-0-0------2-2-|--2------------------------|
--2-----------------0-0-|--0----2----2----2----2----|
--0---------------------|---------4----5----6----7/-|


                                                   
------------------------|------------3-0----------|
---------3-3-3----------|----------------3-0------|
---------2-2-2------2-2-|--2-----------------2r-0-|
--2------0-0-0------2-2-|--2----------------------|
--2-----------------0-0-|--0----------------------|
--0---------------------|-------------------------|


                                                     
------------------------|---------------------------|
---------3-3-3----------|---------------------------|
---------2-2-2------2-2-|--2------------------------|
--2------0-0-0------2-2-|--2------------------------|
--2-----------------0-0-|--0----2----2----2----2----|
--0---------------------|---------4----5----6----7/-|


                                                   
------------------------|------------3-0----------|
---------3-3-3----------|----------------3-0------|
---------2-2-2------2-2-|--2-----------------2r-0-|
--2------0-0-0------2-2-|--2----------------------|
--2-----------------0-0-|--0----------------------|
--0---------------------|-------------------------|


                                                     
------------------------|---------------------------|
---------3-3-3----------|---------------------------|
---------2-2-2------2-2-|--2------------------------|
--2------0-0-0------2-2-|--2------------------------|
--2-----------------0-0-|--0----2----2----2----2----|
--0---------------------|---------4----5----6----7/-|


                                                
-----------------------|-----------------------|
-----------------------|-----------------------|
----2-------4---2---4--|----2-------4---2---4--|
----2---2---4---2---4--|----2---2---4---2---4--|
----0---2---2---0---2--|----0---2---2---0---2--|
--------0--------------|--------0--------------|


                                                  
----3---2---------------|----3---2---------------|
----3---3---------------|----3---3---------------|
----0---2---2--------2--|----0---2---2--------2--|
----0---0---2--------2--|----0---0---2--------2--|
----x-------0--------0--|----x-------0--------0--|
----3-----------3-3b----|----3-----------3-3b----|

[ Tab from: http://www.guitartabs.cc/tabs/a/ac_dc/back_in_black_tab_ver_2.html ]
                                                
-----------------------|-----------------------|
-----------------------|-----------------------|
----2-------4---2---4--|----2-------4---2---4--|
----2---2---4---2---4--|----2---2---4---2---4--|
----0---2---2---0---2--|----0---2---2---0---2--|
--------0--------------|--------0--------------|


                                                 
--3---3---3---3-3-3-3--3--|--2---2---2----------|
--3---3---3---3-3-3-3--3--|--3---3---3----------|
--0---0---0---0-0-0-0--0--|--2---2---2----------|
--0---0---0---0-0-0-0--0--|--0---0---0----------|
--x---x---x---x-x-x-x--x--|---------------------|
--3---3---3---3-3-3-3--3--|---------------------|


                                                   
------------------------|------------3-0----------|
---------3-3-3----------|----------------3-0------|
---------2-2-2------2-2-|--2-----------------2r-0-|
--2------0-0-0------2-2-|--2----------------------|
--2-----------------0-0-|--0----------------------|
--0---------------------|-------------------------|


                                                     
------------------------|---------------------------|
---------3-3-3----------|---------------------------|
---------2-2-2------2-2-|--2------------------------|
--2------0-0-0------2-2-|--2------------------------|
--2-----------------0-0-|--0----2----2----2----2----|
--0---------------------|---------4----5----6----7/-|


                                                   
------------------------|------------3-0----------|
---------3-3-3----------|----------------3-0------|
---------2-2-2------2-2-|--2-----------------2r-0-|
--2------0-0-0------2-2-|--2----------------------|
--2-----------------0-0-|--0----------------------|
--0---------------------|-------------------------|


                                                     
------------------------|---------------------------|
---------3-3-3----------|---------------------------|
---------2-2-2------2-2-|--2------------------------|
--2------0-0-0------2-2-|--2------------------------|
--2-----------------0-0-|--0----2----2----2----2----|
--0---------------------|---------4----5----6----7/-|


                                                
-----------------------|-----------------------|
-----------------------|-----------------------|
----2-------4---2---4--|----2-------4---2---4--|
----2---2---4---2---4--|----2---2---4---2---4--|
----0---2---2---0---2--|----0---2---2---0---2--|
--------0--------------|--------0--------------|


                                                  
----3---2---------------|----3---2---------------|
----3---3---------------|----3---3---------------|
----0---2---2--------2--|----0---2---2--------2--|
----0---0---2--------2--|----0---0---2--------2--|
----x-------0--------0--|----x-------0--------0--|
----3-----------3-3b----|----3-----------3-3b----|


                                                
-----------------------|-----------------------|
-----------------------|-----------------------|
----2-------4---2---4--|----2-------4---2---4--|
----2---2---4---2---4--|----2---2---4---2---4--|
----0---2---2---0---2--|----0---2---2---0---2--|
--------0--------------|--------0--------------|


                                                 
--3---3---3---3-3-3-3--3--|--2---2---2----------|
--3---3---3---3-3-3-3--3--|--3---3---3----------|
--0---0---0---0-0-0-0--0--|--2---2---2----------|
--0---0---0---0-0-0-0--0--|--0---0---0----------|
--x---x---x---x-x-x-x--x--|---------------------|
--3---3---3---3-3-3-3--3--|---------------------|


                                                     
------------------------|---------------------------|
------------------------|---------------------------|
------------------------|---------------------------|
--2---------------------|---------2-2-2--2-2-2--2-2-|
--2------5-5-5------4-4-|--4------2-2-2--2-2-2--2-2-|
--0------0-0-0------0-0-|--0------0-0-0--0-0-0--0-0-|


                                                 
------------------------|-----------------------|
------------------------|------------2-------2--|
------------------------|------------2-------2--|
--2---------------------|---------2--2---2---2--|
--2------5-5-5------4-4-|--4------2--0---2---0--|
--0------0-0-0------0-0-|--0------0------0------|


                                                     
------------------------|---------------------------|
------------------------|---------------------------|
------------------------|---------------------------|
--2---------------------|---------2-2-2--2-2-2--2-2-|
--2------5-5-5------4-4-|--4------2-2-2--2-2-2--2-2-|
--0------0-0-0------0-0-|--0------0-0-0--0-0-0--0-0-|


                                                 
------------------------|-----------------------|
------------------------|------------2-------2--|
------------------------|------------2-------2--|
--2---------------------|---------2--2---2---2--|
--2------5-5-5------4-4-|--4------2--0---2---0--|
--0------0-0-0------0-0-|--0------0------0------|


                                                     
------------------------|---------------------------|
------------------------|---------------------------|
------------------------|---------------------------|
--2---------------------|---------2-2-2--2-2-2--2-2-|
--2------5-5-5------4-4-|--4------2-2-2--2-2-2--2-2-|
--0------0-0-0------0-0-|--0------0-0-0--0-0-0--0-0-|


                                                 
------------------------|-----------------------|
------------------------|------------2-------2--|
------------------------|------------2-------2--|
--2---------------------|---------2--2---2---2--|
--2------5-5-5------4-4-|--4------2--0---2---0--|
--0------0-0-0------0-0-|--0------0------0------|


                                                     
------------------------|---------------------------|
------------------------|---------------------------|
------------------------|---------------------------|
--2---------------------|---------2-2-2--2-2-2--2-2-|
--2------5-5-5------4-4-|--4------2-2-2--2-2-2--2-2-|
--0------0-0-0------0-0-|--0------0-0-0--0-0-0--0-0-|


                                                 
------------------------|-----------------------|
------------------------|------------2-------2--|
------------------------|------------2-------2--|
--2---------------------|---------2--2---2---2--|
--2------5-5-5------4-4-|--4------2--0---2---0--|
--0------0-0-0------0-0-|--0------0------0------|


                                                
-----------------------|-----------------------|
-----------------------|-----------------------|
----2-------4---2---4--|----2-------4---2---4--|
----2---2---4---2---4--|----2---2---4---2---4--|
----0---2---2---0---2--|----0---2---2---0---2--|
--------0--------------|--------0--------------|


                                                  
----3---2---------------|----3---2---------------|
----3---3---------------|----3---3---------------|
----0---2---2--------2--|----0---2---2--------2--|
----0---0---2--------2--|----0---0---2--------2--|
----x-------0--------0--|----x-------0--------0--|
----3-----------3-3b----|----3-----------3-3b----|


                                                
-----------------------|-----------------------|
-----------------------|-----------------------|
----2-------4---2---4--|----2-------4---2---4--|
----2---2---4---2---4--|----2---2---4---2---4--|
----0---2---2---0---2--|----0---2---2---0---2--|
--------0--------------|--------0--------------|


                                                 
--3---3---3---3-3-3-3--3--|--2---2---2----------|
--3---3---3---3-3-3-3--3--|--3---3---3----------|
--0---0---0---0-0-0-0--0--|--2---2---2----------|
--0---0---0---0-0-0-0--0--|--0---0---0----------|
--x---x---x---x-x-x-x--x--|---------------------|
--3---3---3---3-3-3-3--3--|---------------------|


                                                                  
|-------------------------------|-------------------------------||
|-------------------------------|-------------------------------||
|*------------------------------|------------------------------*||
|*------------------------------|------------------------------*||
|-----5h4-2-4----2----2----2----|----5h4-2-4----2----2----2-----||
|---0---------3----5----6----7/-|--0---------3----5----6----7/--||


                                                              
------------------------------|------------------------------|
------------------------------|------------------------------|
------------------------------|------------------------------|
----5h4-2-4----2----2----2----|----5h4-2-4----2----2----2----|
--0---------3----5----6----7/-|--0---------3----5----6----7/-|
------------------------------|------------------------------|


                                                              
------------------------------|------------------------------|
------------------------------|------------------------------|
------------------------------|------------------------------|
------------------------------|------------------------------|
----5h4-2-4----2----2----2----|----5h4-2-4----2----2----2----|
--0---------3----5----6----7/-|--0---------3----5----6----7/-|


                                                
-----------------------|-----------------------|
-----------------------|-----------------------|
----2-------4---2---4--|----2-------4---2---4--|
----2---2---4---2---4--|----2---2---4---2---4--|
----0---2---2---0---2--|----0---2---2---0---2--|
--------0--------------|--------0--------------|


                                                  
----3---2---------------|----3---2---------------|
----3---3---------------|----3---3---------------|
----0---2---2--------2--|----0---2---2--------2--|
----0---0---2--------2--|----0---0---2--------2--|
----x-------0--------0--|----x-------0--------0--|
----3-----------3-3b----|----3-----------3-3b----|


                                                
-----------------------|-----------------------|
-----------------------|-----------------------|
----2-------4---2---4--|----2-------4---2---4--|
----2---2---4---2---4--|----2---2---4---2---4--|
----0---2---2---0---2--|----0---2---2---0---2--|
--------0--------------|--------0--------------|


                                                                     
--3---3---3---3-3-3-3--3--|--2---2---2----------|-------------------|
--3---3---3---3-3-3-3--3--|--3---3---3----------|-------------------|
--0---0---0---0-0-0-0--0--|--2---2---2----------|--2----------------|
--0---0---0---0-0-0-0--0--|--0---0---0----------|--2----------------|
--x---x---x---x-x-x-x--x--|---------------------|--0----------------|
--3---3---3---3-3-3-3--3--|---------------------|-------------------|


                                            
------------------|------------------------|
------------------|------------------------|
------------------|------------------------|
------------------|--2---------------------|
------------------|--2------5-5-5------4-4-|
------------------|--0------0-0-0------0-0-|


                                                     
---------------------------|------------------------|
---------------------------|------------------------|
---------------------------|------------------------|
---------2-2-2--2-2-2--2-2-|--2---------------------|
--4------2-2-2--2-2-2--2-2-|--2------5-5-5------4-4-|
--0------0-0-0--0-0-0--0-0-|--0------0-0-0------0-0-|


                                                 
-----------------------|------------------------|
------------2-------2--|------------------------|
------------2-------2--|------------------------|
---------2--2---2---2--|--2---------------------|
--4------2--0---2---0--|--2------5-5-5------4-4-|
--0------0------0------|--0------0-0-0------0-0-|


                                                     
---------------------------|------------------------|
---------------------------|------------------------|
---------------------------|------------------------|
---------2-2-2--2-2-2--2-2-|--2---------------------|
--4------2-2-2--2-2-2--2-2-|--2------5-5-5------4-4-|
--0------0-0-0--0-0-0--0-0-|--0------0-0-0------0-0-|


                                                 
-----------------------|------------------------|
------------2-------2--|------------------------|
------------2-------2--|------------------------|
---------2--2---2---2--|--2---------------------|
--4------2--0---2---0--|--2------5-5-5------4-4-|
--0------0------0------|--0------0-0-0------0-0-|


                                                     
---------------------------|------------------------|
---------------------------|------------------------|
---------------------------|------------------------|
---------2-2-2--2-2-2--2-2-|--2---------------------|
--4------2-2-2--2-2-2--2-2-|--2------5-5-5------4-4-|
--0------0-0-0--0-0-0--0-0-|--0------0-0-0------0-0-|


                                                 
-----------------------|------------------------|
------------2-------2--|------------------------|
------------2-------2--|------------------------|
---------2--2---2---2--|--2---------------------|
--4------2--0---2---0--|--2------5-5-5------4-4-|
--0------0------0------|--0------0-0-0------0-0-|


                                                     
---------------------------|------------------------|
---------------------------|------------------------|
---------------------------|------------------------|
---------2-2-2--2-2-2--2-2-|--2---------------------|
--4------2-2-2--2-2-2--2-2-|--2------5-5-5------4-4-|
--0------0-0-0--0-0-0--0-0-|--0------0-0-0------0-0-|


                         
-----------------------||
------------2-------2--||
------------2-------2--||
---------2--2---2---2--||
--4------2--0---2---0--||
--0------0------0------||


Comments