Ac Dc - Back In Black Solo Chords & Tabs

 

Back In Black Solo Chords & Tabs

Ac Dc Chords & Tabs

Version: 2 Type: Tab 4 ratings
1 star 2 stars 3 stars 4 stars 5 stars
comments

Back In Black Solo Tab

AC/DC
Back in Black - bridge solo
Solo by Angus Young

E--------------------------------------------------------------------------------------------------------------------------
B--------------------------------------------------------------------------------------------------------------------------
G--------------------------------12----14----14^(15)----12-----------12----------------------------------------------
D----12```----11```----9````-------------------------------------14-----------14-----12```----11````----9````-------
A---------------------------------------------------------------------------------------------------------------------------
E---------------------------------------------------------------------------------------------------------------------------

E--------------------------------------------------------------------------------------------------------------------------
B--------------------------------------------------------------------------------------------------------------------------
G---------------------------------------------------------12------------------12---14^(15)---12---14---------------
D----12---12---12---12---12---12^(14)``````--14--------14---14```----------------------------------14---12---14
A---------------------------------------------------------------------------------------------------------------------------
E---------------------------------------------------------------------------------------------------------------------------

E---------------------------------------------------------------------------------------------------------------------------
B--------------------------------15----------15----------------------------12----------14--------------------15--------
G--12--------12---14^(15---------^15```-------^15)--------------------12----------14---12----14^(15------15)--
D--------14---------------------------------------------------14--14--14--------14-------------------------------------
A---------------------------------------------------------------------------------------------------------------------------
E---------------------------------------------------------------------------------------------------------------------------

E--------------------------------------------12-----------------------------12---------------------------------------------
B-------------------------------------12---------12---15^---15^(16)---------15---12-------------------------15----
G-------12------------------------------------------------------------------------------------14---12---14^(15----------
D----------------14``````---------------------------------------------------------------------------------------------------
A---------------------------------------------------------------------------------------------------------------------------
E---------------------------------------------------------------------------------------------------------------------------
[ Tab from: http://www.guitartabs.cc/tabs/a/ac_dc/back_in_black_solo_tab_ver_2.html ]
E--------------------------------------------------------------------------------------------------------------------------
B-----------------------------------------------12-------14---------12----------------15---------------------------------
G---15)---12---14----------------------------12-------14---------12-----14^(15--------15)```-----------------------
D----------------------14```----14--14--14-------14--------14---------------------------------------------------------
A---------------------------------------------------------------------------------------------------------------------------
E---------------------------------------------------------------------------------------------------------------------------

E-----------------------12---------------------------------------------------------------------------------------------------
B----15^(16)`````----------15--12----------------------------------------------------------------------------------------
G--------------------------------------14---12----------------------------------------------------------------------------
D--------------------------------------------------14```------14--14--12-14```---12--12--11-12```-------------
A---------------------------------------------------------------------------------------------------------------------------
E---------------------------------------------------------------------------------------------------------------------------

E--------------------------------------------------------------------------------------------------------------------------
B------------------------------------12---15^(16)````-------------------------------------------------------------------
G-----------------------------/14-------------------------------------------------------------------------------------------
D----11--11--9-11```------------------------------14--14--12-14``---12---12---11---12``--11---11---9---11``
A---------------------------------------------------------------------------------------------------------------------------
E---------------------------------------------------------------------------------------------------------------------------




Legend

``` 		= vibrato
15^(16) 	= bend up
15(16    ^16) 	= bend up, hit additional note while bending
/14		= slide up


This is my first solo I've submitted to this and so I'm still a little new at this.  These are basic blues rock primer riffs as most of AC/DC's stuff is so it's pretty straight forward.  Getting the sound on the other hand may be a little more difficult.  The real key to nailing this though is in the attack.  There is a reason Angus jerks his body like that when he plays.  He's putting his whole body weight into the attack.  Think of it like opening a door with hand gently or pyle driving it open with your whole body.  If you can get that down you obviously shouldn't be reading this and are already well on your way.  If you like this interpretation or have any comments or suggestions drop me a line at koobie78@hotmail.com.    

Comments