Ac Dc - Are You Ready Chords & Tabs

 

Are You Ready Chords & Tabs

Ac Dc Chords & Tabs

Version: 1 Type: Tab 0 ratings
1 star 2 stars 3 stars 4 stars 5 stars
comments

Are You Ready Tab

e]----------0--------------0-------------0-------------0--------------0----|
b]------3-------3-----3--------3------3------3------3------3-------3-----3-|
g]-------------------------------------------------------------------------|
d]---0--------------0------------------------------------------------------|
a]---------------------------------3-------------3--------------2----------|
e]-------------------------------------------------------------------------|
[ Tab from: http://www.guitartabs.cc/tabs/a/ac_dc/are_you_ready_tab.html ]
e]---------0------------0-----------0------------|           play this twice.
b]------3-----3------3-----------3---------------|
g]-----------------------------------------------|
d]-----------------------------------------------|
a]---2------------3-----------3------------------|
e]-----------------------------------------------|

after you play the intro twice,play the next part of the song(right after they 
YOU READY!!!???) play this.


e]-------------------------------------|
b]-------------------------------------|
g]--7--7--7--5--5--7---7------5---5----|
d]--7--7--7--5--5--7---7------5---5--5-|
a]--5--5--5--3--3--5---5---0--3---3--5-|
e]-----------------------------------3-|

just reapeat that untit changes cause i dont know the rest.
If you have any questions or comments just I.M. me or E-mail me at letherebrock13@aol.com
Comments