Ac Dc - Ain't No Fun (waiting Round To Be A Millionaire) Chords & Tabs

 

Ain't No Fun (waiting Round To Be A Millionaire) Chords & Tabs

Ac Dc Chords & Tabs

Version: 1 Type: Tab 3 ratings
1 star 2 stars 3 stars 4 stars 5 stars
comments

Ain't No Fun (waiting Round To Be A Millionaire) Tab

AC/DC
Aint No Fun
(waiting around to be a millionaire)
Album: dirty deeds done dirt cheap
by mxking246@aol.com
p.m= palm mute
h=hammer on
|-------------------------------------------------------------------------------------------|
|--3--------------3-------------------------------------------------------------------------|
|--2--------------2---------------------------0-----0-----0------0--0--------0-----0--------|rythym fig 1
|--0--------3h4---0------------------------0------------------------------------------------|
|------------------------------------------------0-----2------3--------2--------3-----------|
|---------------------------------------3---------------------------------------------------|

|-------------------------------------------------------------------------------------------|
|-3-----------3-----------------------------------------------------------------------------|
|-2-----------2------------------------------2--2--4---2---4--2---2--4---2---4--2-----------|rythym fig 1a
|-0-----3--4--0------------------------------0--0--0---0---0--0---0--0---0---0--0-----------|
|-----------------------5------0-----2---------------------------------------------3--2-----|
|-----------------------3------------------------------------------------------------------3|

|--------------------------------------------------------------------------------------------|
|-3------------2-2-4--2--4-2--2-4--2--4-2-2-2-4--2--4-2--2-4--2--4-2-------------------------|
|-2------------0-0-0--0--0-0--0-0--0--0-0-0-0-0--0--0-0--0-0--0--0-0-------------------------|rythym fig 2
|-0------------------------------------------------------------------------------------------|
|--------------------------------------------------------------------------------------------|
|--------------------------------------------------------------------------------------------|
                           p.m.--|   p.m.--|       p.m.--|    p.m.--|                         
|--------------------------------------------------------------------------------------------|
|-3-----------------------3--------3--------------3---------3--------------------------------|
|-2-------2---------------2--------2---------2----2---------2---------2----------------------|rythym fig 2a
|-0-------0-------------------0-0------0-0---0-------0--0------0-0----0----------------------|
|--------------------------------------------------------------------------------------------|
|--------------------------------------------------------------------------------------------|

 play rythym fig 2 and 2a 29 1/2 times

 chorus:
|--3-----------------------------------------------------------------------------------------|
|--3-----------------------------------------------------------------------------------------|
|--0--------------------------0--------0-----0-----------------------------------------------| guitar 1
|--0-----------------------0-----------------------------------------------------------------|
|--------------------------------0--------2--------------------------------------------------|
|--3--------------------3--------------------------------------------------------------------|
[ Tab from: http://www.guitartabs.cc/tabs/a/ac_dc/aint_no_fun_waiting_round_to_be_a_millionaire_tab.html ]
|--3-----------------------------------------------------------------------------------------|
|--3-----------------------------------------------------------------------------------------|
|--0-----------------------------------------------------------------------------------------| guitar 2
|--0-----------------------------------------------------------------------------------------|
|------------------------------5--------0------2---------------------------------------------|
|--3---------------------------3-------------------------------------------------------------|

|--------------------------------------------------------------------------------------------|
|--------------------------------------------------------------------------------------------|
|-----0--0--------0----------0-----2--2--4----2----4--2----2--4----2--4--2-------------------|
|----------------------------------0--0--0----0----0--0----0--0----0--0--0-------------------|
|--3--------2--------------------------------------------------------------------------------|
|----------------------3---------------------------------------------------------------------|
                                  p.m.--|     p.m.--|
|--------------------------------------------------------------------------------------------|
|------------------------3------3----------3------------------3---------3--------------------|
|------------------------2------2----------2-----------2------2---------2----------2---------|
|------------------------0----------0--0--------0--0---0----------0--0------0--0---0---------|
|----------2---------------------------------------------------------------------------------|
|---3---------------3------------------------------------------------------------------------|

|--------------------------------------------------------------------------------------------|
|--------------------------------------------------------------------------------------------|
|--2--4--2--4--2--2--4--2--2---2--4---2--2---------------------------------------------------|
|--0--0--0--0--0--0--0--0--0---0--0---0--0---------------------------------------------------|
|--------------------------------------------------------------------------------------------|
|--------------------------------------------------------------------------------------------|
      p.m.--|    p.m.--|            p.m.--|                 p.m.--|
|--------------------------------------------------------------------------------------------|
|---3----------3-----------------3----------3---3---------3----------3--3--------------------|
|---2----------2-----------2-----2----------2---2---------2----------2--2--------------------|
|-------0--0-------0--0----0---------0--0---0---0-------------0--0---0--0--------------------|
|--------------------------------------------------------------------------------------------|
|----------------------------------------------------0-------------------------0-------------|

|-------------------3-------------3--3---3---------------------------------------------------|
|-------------------3-------------3--3---3---------------------------------------------------|
|--2--4---2---2-----0-------------0--0---0---------------------------------------------------|
|--0--0---0---0-----0-------------0--0---0---------------------------------------------------|
|--------------------------------------------------------------------------------------------|
|-------------------3-------------3--3---3---------------------------------------------------|

|---------------------------3--3---3---------------------------------------------------------|
|---3----------3--3---------3--3---3---------------------------------------------------------|
|---2----------2--2---------0--0---0---------------------------------------------------------|
|-------0--0---0--0---------0--0---0---------------------------------------------------------|
|--------------------------------------------------------------------------------------------|
|-----------------------0---3--3---3---------------------------------------------------------|
play rythym fig 1 and 1a (2 times)

play rythym fig 2 (2 times) faster

play rythym fig 2 and 2a  (43 times)
Comments