Abyssos - Masquerade In The Flames Another Black Friday Chords & Tabs

 

Masquerade In The Flames Another Black Friday Chords & Tabs

Abyssos Chords & Tabs

Version: 1 Type: Tab 0 ratings
1 star 2 stars 3 stars 4 stars 5 stars
comments

Masquerade In The Flames Another Black Friday Tab

   
Artist:Abyssos	
Song:Masquerade in the flames (Another Black Friday)
Tab By:Rob Vargo SauronSatan666@hotmail.com


                      



  Tuning:DGCFAD

  Riff:1 2x 
  Guitar:1
|-------------------------------------------------------------------------------------------------------------------------|
|-------------------------------------------------------------------------------------------------------------------------|
|------------777-----------------------------444---------444------------777-----------------------------------------888888|
|---------999---999-----------------------444---444---444------------999---999------101010-999-777777-999-101010-999------|
|---101010---------101010-777-101010---666---------666---------101010---------101010--------------------------------------|
|000--------------------------------777---------------------000-----------------------------------------------------------|
|Guitar:2                                                                                                                 
|-------------------------------------------------------------------------------------------------------------------------|
|-------------------------------------------------------------------------------------------------------------------444444|
|-----------------------------------------777-----------------------------------------------------------------------------|
|-------------999----------------------999---999-------------------------999----------------------------------------------|
|---777-101010---101010-777---777---999---------999------999---777-101010---101010-777-333-222------222-333-222222--------|
|000-----------------------888---777---------------101010---000-------------------------------555555----------------------|
 Guitar:1                                                                                                                 
|-------------------------------------------------------------------------------------------------------------------------|
|-------------------------------------------------------------------------------------------------------------------------|
|------------777-----------------------------444---------444------------777-----------------------------------------------|
|---------999---999-----------------------444---444---444------------999---999-777-------777-999999-101010-999-777-999-777|
|---101010---------101010-777-101010---666---------666---------101010-------------101010----------------------------------|
|000--------------------------------777---------------------000-----------------------------------------------------------|
|Guitar:2                                                                                                                 
|-------------------------------------------------------------------------------------------------------------------------|
|-------------------------------------------------------------------------------------------------------------------------|
|-----------------------------------------777-------------------------------777-------------------------------------------|
|-------------999----------------------999---999-------------------------999---999------999-999999-101010-999-7777-555-444|
|---777-101010---101010-777---777---999---------999------999---777-101010---------101010----------------------------------|
|000-----------------------888---777---------------101010---000-----------------------------------------------------------|

  Riff:2 2x                           C-3-7-10
  Guitar:1     second time  Both Gtrs G-1-5-8
||---------------------------------------------------------------------------------------------------||
||---------------------------------------------------------------------------------------------------||
||---------------------------------------------------------------------------------------------------||
||9--9---------------------------9--9---------9--9---------------------------9--9---5-7-5-4-------4-2||
||7--7--------7-9-10-9h10p9p7----7--7---3-3-5-7--7--------7-9-10-9h10p9p7----7--7-----------7-3-2----||
||-00-00-7-10-----------------10--00-00-1-1-3--00-00-7-10-----------------10--00-00------------------||
||Guitar:2                                                                                           
||---------------------------------------------------------------------------------------------------||
||---------------------------------------------------------------------------------------------------||
||---------------------------------------------------------------------------------------------------||
||9--9----------7-9--7h9p7-------9--9---------9--9----------7-9--7h9p7-------9--9--------------------||
||7--7--------9------------10-9--7--7---3-3-5-7--7--------9------------10-9--7--7---7-8-7-5----------||
||-00-00-7-10---------------------00-00-1-1-3--00-00-7-10---------------------00-00---------8-7-5-8-7||

  Riff:3 2x
  Guitar:1
|-------------------------------------------------------------------------------------------------------------------------|
|-----------------------------------------------------------------------------------------------------------------10101088|
|---------------------999-----------------------------------------------------------999------------------------999--------|
|------999---------------101010------999-------------777-------------999---------------101010------999------777-----------|
|---777---101010---777------------777---101010-777666---999-101010777---101010---777------------777---101010--------------|
|000------------000------------000--------------------------------------------000------------000--------------------------|
|Guitar:2     						  
|-------------------------------------------------------------------------------------------------------------------------|
|---------------------888-----------------------------------------------------------888---------------------------10101088|
|------999---------------------------999-----------------------------999---------------------------999---------999--------|
|---------999------------101010---------999-----------------------------999------------101010---------999---777-----------|
|---777------------777------------777----------------999------777----------------777------------777-----------------------|
|000------------000------------000-------------888777---111111---000----------000------------000--------------------------|
[ Tab from: http://www.guitartabs.cc/tabs/a/abyssos/masquerade_in_the_flames_another_black_friday_tab.html ]
  Play Riff:1 1x
  Riff:4 2x straight twelves
  Guitar:1                   2x 
||--------------------|------------||--------------------|----------------|--------------------|-------------------||
||--------------------|------------||--------------------|----------------|--------------------|------------------8||
||7----7----7----7----|54----------||7----7----7----7----|----------------|--------------------|---------------911-||
||--9----9----9----9--|--754-------||--9----9----9----9--|7---7---7---7---|9----9----9----9----|-----9101291012----||
||---10---10---10---10|-----75-----||---10---10---10---10|-9---9---9---9--|-10---10---10---10--|91012--------------||
||--------------------|-------87578||--------------------|--10--10--10--10|---12---12---12---12|-------------------||
||                    |            ||                    |                |                                        
||--------------------|------------||--------------------|----------------|--------------------|-------------------||
||--------------------|------------||--------------------|----------------|--------------------|-------------------||
||--------------------|975---------||--------------------|----------------|--------------------|---------------5-79||
||9----9----9----9----|---975-----5||9----9----9----9----|4---4---4---4---|5----5----5----8----|-----5-7-95-7-9----||
||-10---10---10---10--|------97579-||-10---10---10---10--|-5---5---5---5--|--7----7----7----7--|5-7-9--------------||
||---12---12---12---12|------------||---12---12---12---12|---7---7---7---7|----8----8----8----8|-------------------||

  Riff:5 3x
  Both Guitars
||-----------------------------------------------------||
||-----------------------------------------------------||
||-----------------------------------------------------||
||----9----9-7-----9----1112-----9----9-7-----9--------||
||222-7----7-5-222-7----9-10-222-7----7-5-222-7----7-10||
||000---00-----000---00------000---00-----000---00-5-8-||

  Play Riff:3 2x

||---||
||---||
||---||
||-9-||
||-7-||
||---||

  Riff:6 3x
  Guitar:1 All Tremlo
||-------------------------------------------------------------------------------------------------||
||-----------------------------12------------------------------------------------------------------||
||----9-12-9---------------9-12--------------------7--9----------------------------7--9------11--11||
||---9---------10----13---9---------10------------9----10-------------------------9----10------13--||
||-10--------10----13---10--------10--9-10-12----9-------10----------------------9-------10--------||
||0---------8----11----0---------8-----------7-10----------11-15-13h15p13-11-7-10----------11------||
||Guitar:2                                                                                         
||-------7-------------------7-12------------------------------------------------------------------||
||----8----8---------------8---------------------------------------------------------------------11||
||---9--------------------9------------------------1112----------------------------1112--------12--||
||--9----------10----13--9----------10------------9----14-------------------------9----14----14----||
||7----------10----13--7----------10--9-10-12----9-------15----------------------9-------15--------||
||----------8----11--------------8-----------7-10----------15-11-10h11p10--8-7-10----------15------||

  Riff:7 4x
  Guitar:1
||----------------------------------------------------------||
||----------------------------------------------------------||
||--9----11-------9----------11--9----11-------9------------||
||---9-----13------9---10-13------9-----13------9-----------||
||----10-----14-----10-------------10-----14-----10-12-14p12||
||0-------------0--------------0-------------0--------------||
||Guitar:2                                                  
||---------------------------10-----------------------------||
||--8----11-------8-------11-----8----11-------8------------||
||---9-----11------9---11---------9-----11------9---11-12p11||
||----9------13-----9--------------9------13-----9----------||
||7-------------7--------------7-------------7--------------||
||----------------------------------------------------------||

  Riff:8 4x
  Both Guitars
||-------------------------------||
||-------------------------------||
||-------------------------------||
||999999999999999----------------||
||7777777777777775555555599999999||
||---------------3333333377777777||

  Riff:9(this is as close as i can get email me with comments. try playing it along with the song before emailing)
  Guitar:1 tremlo
||-------------------------------------------------|------------------------------------------------||
||----------------------------------------1-0---1-3|------------------------------------------------||
||----5-4-2-------5-4---------5-4-2-----------0----|----5-4-2-------5-4----------10-9-7-------------||
||---7-----3-----5---5-------7-----3-----3---------|---7-----3-----5---5--------9------10-9-10-9-7-5||
||0-7-------2-3-7-----7-3-0-7-------2---3----------|0-7-------2-3-7-----7-3-7-10------------8--7-5-3||
||-------------------------------------1-----------|------------------------------------------------||
||Guitar:2                                         |                                                
||-------------------------------------------------|------------------------------------------------||
||-------------------------------------------------|------------------------------------------------||
||-------------------------------------------------|------------------------------------------------||
||22-22--2224-5555-5555---22-22--22-22-------------|22-22--2224-5555-5555----99-99-99-99----10-9-7-5||
||00-00--0002-3333-3333---00-00--00-00--33-33-55-55|00-00--0002-3333-3333----77-77-77-77----8--7-5-3||
||--------------------------------------11-11-33-33|------------------------------------------------||

  Riff:10 2x
  Both Guitars
|-------------------------------------------------------------------------------------------------------------------|
|-------------------------------------------------------------------------------------------------------------------|
|-------------------------------------------------------------------------------------------------------------------|
|2-2222-2-2222-5-5555-5-5555-9-9999-9-9999-----------------10--10-10-10--7-7777-7-7757-9-9999-9-9999----------------|
|0-0000-0-0000-3-3333-3-3333-7-7777-7-7777-875-75--5-------8-8888-8-8888-5-5555-5-5535-7-7777-7-7777-875-75--5------|
|------------------------------------------------8--87-875-------------------------------------------------8--87-875|

  Play Riff:1 1x                            
  Play Riff:2 2x Same as before substitute  C-3-7-10 second repeat
                                            G-1-5-8
  Play Riff:3 2x end with  C-9999
                           G-7777
  Play Riff:4 1x
  Play Half of Riff:5
  Play Riff:4 1x end with  C-9999
                           G-7777
  Play Riff:8 4x and finsh this amazing song



  Email me with questions/Comments
Comments