Absolute Zero - Fat Camp Chords & Tabs

 

Fat Camp Chords & Tabs

Absolute Zero Chords & Tabs

Version: 1 Type: Tab 0 ratings
1 star 2 stars 3 stars 4 stars 5 stars
comments

Fat Camp Tab

fat camp full song
By:Absolute zero
submitted by:Obey jo


  Intro:
e-------------------------------------------------------|
B-------------------------------------------------------|
G-------------------------------------------------------|  x2
D--5-5-5-5-5-5-5------------------7-7-7-7-7-7-7---------|
A-3-3-3-3-3-3-3---5-5-5-5-5-5-5--5-5-5-5-5-5-5--88753---|
E----------------3-3-3-3-3-3-3--------------------------|


  verse:  palm mute all except first strum
e---------------------------------------------------------------|
B---------------------------------------------------------------|
D--3-3-3-3-3-3-3------------------5-5-5-5-5-5-5---8-8-8-8-8-8-8-|  x2
A-1-1-1-1-1-1-1---3-3-3-3-3-3-3--3-3-3-3-3-3-3---6-6-6-6-6-6-6--|
E----------------1-1-1-1-1-1-1----------------------------------|


  Chorus:
e--------------------------------------------------------|
B--------------------------------------------------------|
D--3-3-3-3-3-3----------------5-5-5-5-5-5---8-8-8-8-8-8--|  x2
A-1-1-1-1-1-1---3-3-3-3-3-3--3-3-3-3-3-3---6-6-6-6-6-6---|
E--------------1-1-1-1-1-1-------------------------------|


  Chorus 2:
[ Tab from: http://www.guitartabs.cc/tabs/a/absolute_zero/fat_camp_tab.html ]
e--------------------------------------------------------|
B--------------------------------------------------------|
D--3-3-3-3-3-3----------------5-5-5-5-5-5---8------------|
A-1-1-1-1-1-1---3-3-3-3-3-3--3-3-3-3-3-3---6--88753------|  x1
E--------------1-1-1-1-1-1-------------------------------|

   Verse 2:
e-----------------------------|
B-----------------------------|
D--3-------5----8-8-8-8-8-8---|
A-1---3---3----6-6-6-6-6-6----|  x2
E----1------------------------|

  Bridge:


e-------------------------------------|
B-------------------------------------|
D---5-5-5-5-5-5-5-5-5-5-5-5-5-5-5-5---|
A--3-3-3-3-3-3-3-3-3-3-3-3-3-3-3-3----|  x1
E-------------------------------------|


 Chorus:
e--------------------------------------------------------|
B--------------------------------------------------------|
D--3-3-3-3-3-3----------------5-5-5-5-5-5---8-8-8-8-8-8--|  x2
A-1-1-1-1-1-1---3-3-3-3-3-3--3-3-3-3-3-3---6-6-6-6-6-6---|
E--------------1-1-1-1-1-1-------------------------------|


  Chorus 2:

e--------------------------------------------------------|
B--------------------------------------------------------|
D--3-3-3-3-3-3----------------5-5-5-5-5-5---8------------|
A-1-1-1-1-1-1---3-3-3-3-3-3--3-3-3-3-3-3---6--88753------|  x1
E--------------1-1-1-1-1-1-------------------------------|
Comments