Abrogate - Path We Choose Chords & Tabs

 

Path We Choose Chords & Tabs

Abrogate Chords & Tabs

Version: 1 Type: Bass Tab 0 ratings
1 star 2 stars 3 stars 4 stars 5 stars
comments

Path We Choose Bass Tab

verses-
E----------------------------------------------------------|
A-00---------00--------00---------00-70-50-3---------------|
D----30---30---30---3---30---30----------------------------|
G-------30---------30--------30----------------------------|
[ Tab from: http://www.guitartabs.cc/tabs/a/abrogate/path_we_choose_btab.html ]
E----------------------------------------------------------|
A-00---------00--------00---------00-70-50-3---------------|
D----30---30---30---3---30---30----------------------------|
G-------30---------30--------30----------------------------|

Shangri-La-
E-0000-7777-0000-5555--|
A----------------------|     
							
													
Comments