Abba - Happy Hawaii Chords & Tabs

 

Happy Hawaii Chords & Tabs

Abba Chords & Tabs

Version: 1 Type: Bass Tab 0 ratings
1 star 2 stars 3 stars 4 stars 5 stars
comments

Happy Hawaii Bass Tab

Happy Hawaii ( ABBA )
------------------------------------------------------------------------------
Tabbed by: Mike Kunz
E-mail: rmjk21@embarqmail.com

Tuning: Standard

  intro:
G|-----------------------------------------------------------------------------|
D|-----------------------------------------------------------------------------|
A|0h-3-3-3-3-3-3-3-3-3-3-3-3-3-3-3-3-3-3-3-3-3-3-3-3-3-3-3-3-3-3-3-3-3-3-------|
E|-----------------------------------------------------------------------------|

 verse:
G|-----------------------------------------------------------------------------|
D|-----------------------------------------------------------------------------|
A|3-3-3-3-3-3-3--------- 3-3-3-3-3-3-3-------------------------------3-3-3-----|
E|-------------3-3-3-3-3--------------3-3-3-3-3--1-1-1-1-1-3-3-3-3-3-----------|


G|-----------------------------------------------------------------------------|
D|-----------------------------------------------------------------------------|
A|3-3-3-3-3-3-3---------3-3-3-3-3-3-3-------------------------------3-3-3-3----|
E|-------------3-3-3-3-3-------------3-3-3-3-3-1-1-1-1-1-1-3-3-3-3-3-----------|
[ Tab from: http://www.guitartabs.cc/tabs/a/abba/happy_hawaii_btab.html ]
 chorus:
G|-----------------------------------------------------------------------------|
D|---2-5-3-2---5-3-2-----2-5---2-5-3-2---5-3-2-----------r---2----5-5-5-5-5----|
A|3-5-------5-3-----5-3-5---3-5-------5-3-----5--r--3--------------------------|
E|-----------------------------------------------------------------------------|


 interlude:
G|------------------------------------------------------------------------------|
D|0-5-5-5-5-5-5-5-5-5-5-5---------------3-3-3-3-3-------------------------------|
A|------------------------3-3-3-3-3-3-3----------5-5-5-5-5-5-5-3-3-3-3-3-3------|
E|-------------------------- ---------------------------------------------------|


  outro:
G|-----------------------------------------------------------------------------|
D|0-3-3-3-3-3-3-3-3-3-3-3-3-3-3-3-3-3-3-3-3-3-3-3-3-3-3-3-3-3-3-3-3-3-3-3------|
A|-----------------------------------------------------------------------------|
E|-----------------------------------------------------------------------------|



intro play twice
verse
verse
chorus
verse
interlude
verse
verse
chorus
verse
interlude
outro



===============================================================================
Comments