Abandoned Pools - Blood Chords & Tabs

 

Blood Chords & Tabs

Abandoned Pools Chords & Tabs

Version: 1 Type: Tab

Blood Tab

verse
e(----------)
b(----------)
g(----------)
d(------7-6-)
a(----4-----)
D(--4-------)
[ Tab from: http://www.guitartabs.cc/tabs/a/abandoned_pools/blood_tab.html ]
pre-chorus
e(------------------------0---------)
b(--------0-------0-----9-------6-5-)
g(------9-------8-------------------)
d(----------------------------6-----)
a(----6-------4-------7-----4-------)
D(--6-------4-------7---------------)

chorus
e(------------------)
b(------------------)
g(------------------)
d(--444444466666666-)
a(--444444466666666-)
D(--444444466666666-)

bridge  repeated
e(----------)
b(--9-------)
g(----9---9-)
d(------9---)
a(----------)
D(----------)