Abandon All Ships - Maria I Like It Loud Chords & Tabs

 

Maria I Like It Loud Chords & Tabs

Abandon All Ships Chords & Tabs

Version: 1 Type: Tab

Maria I Like It Loud Tab

Artist: Abandon All Ships
Song: Maria (I Like It Loud)
Album: Abandon All Ships - EP

Tuning: Drop D
DADGBE


Noo Point Realyy In Making This Since It’s So Easy 2 Learn Haha :P
But WHatverz..






(0:24 – 0:52)
“Eheheh Myspace...”

(10’s Not 1’s And 0’s)
|-------------------------------------------------------------------|
|-------------------------------------------------------------------|
|-------------------------------------------------------------------|
|-00000000000000-10101010101010101010-33333333333333-00000000000000-|  (x4)
|-00000000000000-10101010101010101010-33333333333333-00000000000000-|
|-00000000000000-10101010101010101010-33333333333333-00000000000000-|



(0:52 – 1:06)
“Maria, Maria, I Like It Loud...”
[ Tab from: http://www.guitartabs.cc/tabs/a/abandon_all_ships/maria_i_like_it_loud_tab.html ]
|--------------------------------------------|
|--------------------------------------------|
|--------------------------------------------| (x2)
|--------------------------------------------|
|-0-0--0000-10-10--10--3-3--3333-2-2--22-3*b-|
|-0-0--0000-10-10--10--3-3--3333-2-2--22-----|
  . .  .... .  .   .   . .  .... . .  ..



(1:06 – 1:12)
“LOOUUDD!..”

(Let Ring Out~)
|---------------------------------------------|
|---------------------------------------------|
|---------------------------------------------|
|-------------------------------------------0-|
|-0-0--0000-00-0-00-0--0-0--0000-00-0-00-0--0-|
|-0-0--0000-00-0-00-0--0-0--0000-00-0-00-0--0-|
  . .  .... .. . .. .  . .  .... .. . .. .


“Maria Believe Me I Like It Loud...”




Please Rate/Comment (: