Aaron Shust - My Savoir My God Chords & Tabs

 

My Savoir My God Chords & Tabs

Aaron Shust Chords & Tabs

Version: 1 Type: Tab

My Savoir My God Tab

   
Capo 5
[ Tab from: http://www.guitartabs.cc/tabs/a/aaron_shust/my_savoir_my_god_tab.html ]
Intro		     A					F#m
e|-------------------0---00--0---00---------------------0---00--0---00-----|
B|5-5-5-5s333-3s222--2---22--2---22--5-5-5-5s333-3s222--2---22--2---22-----|
G|6-6-6-6s444-4s222--2---22--2---22--6-6-6-6s444-4s222--2---22--2---22-----|
D|-------------------2---22--2---22---------------------4---44--4---44-----|
A|-----------------0-------0-------0--------------------4---44--4---44-----|
E|----------------------------------------------------2-2---222-2---22-----|

		     E					 A
e|-------------------------------------------------------0---00--0---00----|
B|-------------------0---00--0----00--5-5-5-5s333-3s222--2---22--2---22----|
G|-------------------1---11--1----11--6-6-6-6s444-4s222--2---22--2---22----|
D|2-2-2-2-222-2-222--2---22--2----22---------------------2---22--2---22----|
A|5-5-5-5s444-4s222--2---22--2----22-------------------0-------0-------0---|
E|------------------0------0--------0--------------------------------------|