Aaroh - Sawal Chords & Tabs

 

Sawal Chords & Tabs

Aaroh Chords & Tabs

Version: 1 Type: Tab 0 ratings
1 star 2 stars 3 stars 4 stars 5 stars
comments

Sawal Tab

song sawal
artist aaroh
album sawal
tabbed by adil(slash_adil@hotmail.com)
this is my first ever tab so it might have mistakes any comments any thing welcomed.
date 12/12/03

tuning standard
use a little echo effect with 0.4 second delay.


 intr0:
E-------------------------------------------------------------------------------------
B-------------------------------------------------------------------------------------
G-------------------------------------------------------------------------------------
D-------------------------------------------------------------------------------------
A----------------7---5---5------7----5---5-------7----5---5------------5---------5----
E---------0---0----0---0---0--0---0----0---0---0---0----0-----0---5--7---0--5--7----0-
[ Tab from: http://www.guitartabs.cc/tabs/a/aaroh/sawal_tab.html ]
then rhythm after the intro  X 2
E------12-----10------7-------4------2------------0-----0------0------
B---12----12-----12-------9------5-------3----1------0----0--0--------
G---------------------------------------------------------------------
D---------------------------------------------------------------------
A---------------------------------------------------------------------
E-0-------------------------------------------------------------------

verse
E---------------7--------7-------7-------7---------8-------8--------7--------12-------12-
B-----------5--------5-------5-------5--------5--------5-------5----------12----12-12----
G---------------------------------------------------------------------------------------- X 2
D----------------------------------------------------------------------------------------
A----------------------------------------------------------------------------------------
E----------------------------------------------------------------------------------------

E---------------5-------5-------5-------5-----7-------7--------8-------------12-------12-
B-----------3-------3-------3-------3------5--------5-------3-------------12----12-12----
G----------------------------------------------------------------------------------------
D----------------------------------------------------------------------------------------
A----------------7---5---5------7----5---5-------7----5---5------------5---------5-------
E---------0---0----0---0---0--0---0----0---0---0---0----0-----0---5--7---0--5--7----0----

solo and outro coming soon
Comments