A Thorn For Every Heart - February Acoustic Chords & Tabs

 

February Acoustic Chords & Tabs

A Thorn For Every Heart Chords & Tabs

Version: 1 Type: Tab

February Acoustic Tab

Verse 1 - “it’s my time to leave..”
All downs strokes
|----------------------|
|----------------------|
|---6------------------|
|---6-x8--7-----9------| x4
|---4-----7-x4--9-x4---|
|---------5-----7------|

Verse 2 - “no question why I have to leave..”
Strumming’s easy. You figure it out
|----------------------|
|----------------------|
|---6------------------|
|---6-x8--7-----9------| x4
|---4-----7-x4--9-x4---|
|---------5-----7------|

Chorus - “you want me to always remember..”
|------------------------------------------|
|------------------------------------------|
|---66666--66666--666----------------------|
|---66666--66666--666--77777--99999--999---| x4
|---44444--44444--444--77777--99999--999---|
|----------------------55555--77777--777---|
[ Tab from: http://www.guitartabs.cc/tabs/a/a_thorn_for_every_heart/february_acoustic_tab.html ]
Verse 3 - “for all the lonely nights..”
|----------------------------|
|----------------------------|
|---666----------------------|
|---666-x4--777-----999------| x4
|---444-----777-x2--999-x2---|
|-----------555-----777------|
    ..      ..      ..

CHORUS x4

Verse 4 - same as VERSE 1

Interlude
|-----000----000---|
|-----000----000---|
|---6-666--4-444---|
|---6-666--4-444---|
|---4-444--2-222---|
|------------------|

Verse 5 - “so when will it end..”
And “sometimes I don’t know..”
I cant tab the strumming. Figure it out.
|---------------|
|---------------|
|---------------|
|---7---9---4---| x8
|---7---9---4---|
|---5---7---2---|

Ending
|-----------0----------------|
|-----------0----------------|
|-----------4----------------|
|---7-------4-ring--4--------|
|---7-ring--2-------4-ring---|
|---5---------------2--------|