A Static Lullaby - Smooth Modulator Chords & Tabs

 

Smooth Modulator Chords & Tabs

A Static Lullaby Chords & Tabs

Version: 2 Type: Tab 0 ratings
1 star 2 stars 3 stars 4 stars 5 stars
comments

Smooth Modulator Tab

   
Artist:A Static Lullaby
Song:Smooth Modulator
Album:Faso Latido
this is my first tab for this site my other tabs are on a differnt site but i decided to try this out


Gt. 1
e-----------------|
b----5-6-3--------|
g-5-2-----4-------|3x
d-----------------|
a-----------------|
e-----------------|

then after playing the first part 3x you play this
e---------------------|
b---------------------|
g-5-2-----------------|
d-----3-2-------------|
a----------3----------|
e------------5--------|

Gt.2
   Ami
e-5-5-5-|
b-5-5-5-|
g-5-5-5-|
d-7-7-7-| (play as long as the intro is)
a-7-7-7-|
e-5-5-5-|
    d d u
[ Tab from: http://www.guitartabs.cc/tabs/a/a_static_lullaby/smooth_modulator_tab_ver_2.html ]
e---5--x-5--x-5--x-5--x-5-------|
b---5--x-5--x-5--x-5--x-5-------|
g-------------------------------|
d-------------------------------|
a-0-----------------------------|
e-------------------------------|

e---3--x-3--x-3--x-3--x-3h5-------|
b---5--x-5--x-5--x-5--x-5---------|
g---------------------------------|
d---------------------------------|
a-0-------------------------------|
e---------------------------------|

e---5--x-5--x-5--x-5--x-5-------|
b---5--x-5--x-5--x-5--x-5-------|
g-------------------------------|
d-------------------------------|
a-0-----------------------------|
e-------------------------------|

e--5-3---3--------|
b------5---5------|
g-----------------|
d-----------------|
a-----------------|
e-----------------|
Comments