A Second Chance - Someday Chords & Tabs

 

Someday Chords & Tabs

A Second Chance Chords & Tabs

Version: 1 Type: Tab 0 ratings
1 star 2 stars 3 stars 4 stars 5 stars
comments

Someday Tab

#-----------------------------------------------------------------------------#
#-- File created with Instab - http://www.pconline.com/~smcarey/instab.html --#
#-----------------------------------------------------------------------------#

Author/Artist: Second Chance
Title: Someday
------------------------------------------------------------------------------
------------------------------------------------------------------------------
------------------------------------------------------------------------------
----------------------------------9-9-9-9-9--------------------------------x2-
-7-7-7-7-7--5-5-5-5-5--9-9-9-9-9--7-7-7-7-7-----------------------------------
-5-5-5-5-5--3-3-3-3-3--7-7-7-7-7----------------------------------------------
                                                                              

------------------------------------------------------------------------------
------------------------------------------------------------------------------
------------------------------------------------------------------------------
----------9----x4---------7--5--2--2----x2-----------7-----5----x2------------
-7--5--9--7---------------9--3--0--0--------------5--5--7--3------------------
-5--3--7------------------------------------------3-----5---------------------
                         .....PM.....                                         
[ Tab from: http://www.guitartabs.cc/tabs/a/a_second_chance/someday_tab.html ]
------------------------------------------------------------------------------
------------------------------------------------------------------------------
------------------------------------------------------------------------------
-7--5--2--2-----x2-----------------9----x2--------7--5--2--2----x2------------
-9--3--0--0---------------7--5--9--7--------------9--3--0--0------------------
--------------------------5--3--7---------------------------------------------
                                                 .....PM.....                 

------------------------------------------------------------------------------
------------------------------------------------------------------------------
------------------------------------------------------------------------------
----7-----5----x2------------------------------------------------------x**----
-5--5--7--3-------------------------------------------------7--9--5-----------
-3-----5----------------------------------------------------5--7--3-----------
                        ........SOLO??........                                

------------------------------------------------------------------------------
------------------------------------------------------------------------------
------------------------------------------------------------------------------
---------------x2-------------7-----5----x4----------------------x4-----------
-7--5--2--2----------------5--5--7--3--------------7--5--2--2-----------------
-9--3--0--0----------------3-----5-----------------5--3--0--0-----------------
 ....PM....
Comments