A Perfect Circle - Wake The Dead Chords & Tabs

 

Wake The Dead Chords & Tabs

A Perfect Circle Chords & Tabs

Version: 3 Type: Tab 0 ratings
1 star 2 stars 3 stars 4 stars 5 stars
comments

Wake The Dead Tab

#----------------------------------PLEASE NOTE--------------------------------#
#This file is the author's own work and represents their interpretation of the#
#song. You may only use this file for private study, scholarship, or research.#
#-----------------------------------------------------------------------------#
#-- File created with Instab - http://www.pconline.com/~smcarey/instab.html --#
#-----------------------------------------------------------------------------#


Author/Artist: A perfect Circle
Title: Wake the dead
Album: ???
Transcribed by: Wang Jen Yu
Email: tusoldier@hotmail.com


Here is the violin solo, transcripted for guitar. Please e-mail me for any commets
or corrections.

                              Wake the Dead
                              (violin Solo)

0:35                      0:48                 1:04
-22^^^^^^^^^^22b23^^-19--|--------------------|-------------------------------|
-------------------------|--19b19b19b19b------|--12-12\15---10\12-------------|
-------------------------|--------------------|-------------------------------|
-------------------------|--------------------|-------------------------------|
-------------------------|--------------------|-------------------------------|
-------------------------|--------------------|-------------------------------|

                                    1:21
-----------------------------------|------------------------------------------|
-10--12\13/12----12\15--17/15-12---|-----12b12b12b----------------------------|
-----------------------------------|------------------------------------------|
-----------------------------------|------------------------------------------|
-----------------------------------|------------------------------------------|
-----------------------------------|------------------------------------------|

1:33
-19b19--------------|------17-19-19b19--19\22-22--|--22b24b22-19--------------|
-------17-12-12b12--|--12-------------------------|---------------------------|
--------------------|-----------------------------|---------------------------|
--------------------|-----------------------------|---------------------------|
--------------------|-----------------------------|---------------------------|
--------------------|-----------------------------|---------------------------|

[ Tab from: http://www.guitartabs.cc/tabs/a/a_perfect_circle/wake_the_dead_tab_ver_3.html ]
-19\20/19---------------------------|----------------------|------------------|
----------17--12\13/12--------------|----------------------|--12\13/12\13/12--|
------------------------12----------|----------------------|------------------|
----------------------------9\10/9--|------9\10/9-9b9b9b---|------------------|
------------------------------------|----------------------|------------------|
------------------------------------|----------------------|------------------|

1:55                      2:10                                2:30
----12-14-19-14-17-17^^^^|----------------|------------------|----------------|
-12----------------------|--19b19b19-19-17|--12b12/8h10p8-12-|-7-7\8-8\10-----|
-------------------------|----------------|------------------|----------------|
-------------------------|----------------|------------------|----------------|
-------------------------|----------------|------------------|----------------|
-------------------------|----------------|------------------|----------------|

                       2:34
----------------------|---19b19-------14b14-----------------------------------|
-10\12-12--12b12b12b--|---------17----------12------12b12b12b-----------------|
----------------------|-------------------------------------------------------|
----------------------|-------------------------------------------------------|
----------------------|-------------------------------------------------------|
----------------------|-------------------------------------------------------|

2:38
---------22-22-21b24-21-------------22-22---22-20-19--------------------------|
------------------------------------------------------------------------------|
---19-19---------------------19-19--------------------------------------------|
------------------------------------------------------------------------------|
------------------------------------------------------------------------------|
------------------------------------------------------------------------------|

         2:57
-20-19--|---------------------------------------------------------------------|
--------|---------------------------------------------------------------------|
--------|--9-9\10/9-9^^^^^^^-9\12---12\14-------------------------------------|
--------|---------------------------------------------------------------------|
--------|---------------------------------------------------------------------|
--------|---------------------------------------------------------------------|
Comments