A Perfect Circle - Wake The Dead Chords & Tabs

 

Wake The Dead Chords & Tabs

A Perfect Circle Chords & Tabs

Version: 2 Type: Tab 0 ratings
1 star 2 stars 3 stars 4 stars 5 stars
comments

Wake The Dead Tab

                   TIPO 1          TIPO 2    
e|--3------7-----||-5H7/3-2-3---||-5--2-3-----|
B|----3------8---||-------------||------------|
G|--0---0--0---0-||-0-----0-----||-0--0-------|
D|---------------||-------------||------------|
A|---------------||-------------||------------|
E|---------------||-------------||------------|

ALTERNA EL TIPO 1 Y EL TIPO 2
[ Tab from: http://www.guitartabs.cc/tabs/a/a_perfect_circle/wake_the_dead_tab_ver_2.html ]
2 PARTE                               parte3
e|--3-----3------------------2------||-3-----2-----||
B|------3----7-----7--5--------3----||---3-----3---||
G|----0----------7------5--------0--||-----0-----0-||
D|--2----------5----------5---------||-------------||
A|-----------5--------3------3------||-3-----3-----||
E|----------------------------------||-------------||
parte4
||---------||
||--5---5--||
||-------5-||
||---------||
||--3-3----||
||---------||
se alterna la parte 3 y 4
SE REPITE VARIAS VECES


e|--------2----------2----------2-3-2-3p2-------|
B|--3-------3--3-------3--3-----3-3-3-3---------|
G|----0----------0----------0-------------------|
D|--0---0-----0----0------0---0-----------------|
A|----------------------------------------------|
E|-------------------------------------------(7)|

|--------0----------0-----||------5-----------5-----||
|--0-------(0)-0------(0)-||-0------(0)-0-------(0)-||
|-------------------------||------------------------||
|----4-----------4--------||---4----------4---------||
|------2-----------2------||----2-----------2-------||
|-------------------------||------------------------||
se repite varias veces

y esa es toda la canción despues empieza otra vez desde la 2 parte
cualquier correccion o sugerencia me escriben a felipe_abellan@yahoo.com
Comments