A Perfect Circle - Thomas Chords & Tabs

 

Thomas Chords & Tabs

A Perfect Circle Chords & Tabs

Version: 4 Type: Tab 0 ratings
1 star 2 stars 3 stars 4 stars 5 stars
comments

Thomas Tab

   
Band- A Perfect Circle
Song- Thomas

  C5                   D5                   E5
      x 3 5 5 x x          x 5 7 7 x x          0 2 2 x x x

Gtr I (Db Gb B E Ab Db) - 'Acoustic (Capo 3rd fret)'
Gtr II (Db Gb B E Ab Db) - 'Distortion'
Gtr III (Db Gb B E Ab Db) - 'Distortion'
Gtr IV (Db Gb B E Ab Db) - 'Clean (w/chorus, delay & slide)'

 Intro
  Slowly Q=86
  (C#m)          (D#7/C#)
 4/4
  Gtr I
  E  E E E  E  E E E    E  E  E E E E Q
|--------------------|-------------------|
|-5------5-------4---|-----4------4------|
|----6------6------6-|--------6-----6----|
|------6-------6-----|--5-------5-----5--|
|-4------4-(4)---4---|-(4)-4------4------|
|--------------------|-------------------|
  Q.     E +Q    Q     +E  Q.     H


  (Amaj9)
  E E E E  Q    E E    E  E Q   E  E E S S
|-------------------|----------------------|
|-0-------------0---|-----------0----------|
|---6---6---------6-|-----6--------6-------|
|-----5----6--------|--6----6--------6s5s6-|
|-------------------|----------------------|
|-5-------(5)-5-5---|-(5)-----x-5----------|
  H       +E  E Q     +Q.     E Q.     E


  (C#m)          (D#7/C#)
  Gtr I
  E  E E E  E  E E E    E  E  E E E  E E   E
|--------------------|---------------9-------|
|-5------5-------4---|-----4------4----------|
|----6------6------6-|--------6--------------|
|------6-------6-----|--5-------5------5-----|
|-4------4-(4)---4---|-(4)-4------4----------|
|--------------------|-------------------4s5-|
| Q.     E +Q    Q     +E  Q.     Q.     a E
|
| Gtr II
| W                     W
|--------------------|-----------------------|
|--------------------|-----------------------|
|--------------------|-----------------------|
|--------------------|-----------------------|
|--------------------|-----------------------|
|--------------------|-----------------------|


  (Amaj9)
  E E E E  Q    E E    E  E Q   E E Q
|-------9-----------|-------------9---------||
|-0-------------0---|-----------0-----------||
|---6-------------6-|-----6-----6-----------||
|-----6----6--------|--6----6---6---6-------||
|-------------------|-----------x-----------||
|-5-------(5)-5-5---|-(5)-----5-5-----------||
| H       +E  E Q     +Q.     E H
|
| W                    H        Q   E S  S
|-------------------|-----------------------||
|-------------------|-----------------------||
|-------------------|-----------------------||
|-------------------|-----------------------||
|-------------------|-----------------x\-x--||
|-------------------|--------------------x--||


   Half-Time Feel
                      1.,2.,3.                     4.
    E5   G5      D5                     Bb5                        Bb5
    Gtr II
                                            PM|
    Q  E E E +E   Q     +E   Q   +E   E E E S S  4x  E  Q   +E   E E E E
||-------------------|---------------------------||----------------------||
||o------------------|--------------------------o||----------------------||
||-------------------|---------------------------||----------------------||
||--2--2-5-5-(5)S12--|-(12)-12--(12)\---8-8------||-12-12--(12)\---8-8-8-||
||o-2--2-5-5-(5)S12--|-(12)-12--(12)\---8-8-----o||-12-12--(12)\---8-8-8-||
||--0--0-3-3-(3)S10--|-(10)-10--(10)\---6-6-0-0--||-10-10--(10)\---6-6-6-||


 Verse
  C5
     PM-------------------------------
   E E E E E E E E   E E E E E E E E
|------------------|-----------------|
|------------------|-----------------|
|------------------|-----------------|
|-10---------------|-----------------|
|-10---------------|-----------------|
|--8-8-8-8-8-8-8-8-|-8-8-8-8-8-8-8-8-|


                 D5
 -------------|
  E E E E E S  S  Q     +E   Q.    Q.   S S
|--------------------|------------------------|
|--------------------|------------------------|
|--------------------|------------------------|
|----------------12--|-(12)-12----12----x-x---|
|----------------12--|-(12)-12----12----x-x---|
|-8-8-8-8-8-8-10-10--|-(10)-10----10----x-x---|


  C5
   E E E E E E E E   E E E E E E E E
|------------------|-----------------|
|------------------|-----------------|
|------------------|-----------------|
|-10---------------|-----------------|
|-10---------------|-----------------|
|--8-8-8-8-8-8-8-8-|-8-8-8-8-8-8-8-8-|


                 D5
  E E E E E S  S  Q     +E   Q.    Q   Q
|--------------------|---------------------||
|--------------------|---------------------||
|--------------------|---------------------||
|----------------12--|-(12)-12----12--12\--||
|----------------12--|-(12)-12----12--12\--||
|-8-8-8-8-8-8s10-10--|-(10)-10----10--10\--||


 Chorus
    D            E5        Esus2        G5      D5          Bb5   E5
  Gtr III
  E E E E a  E E Q    +Q    H.                   Q   E   E  E E E E
|-------------------|------^7-----------------|--0---0---0--0-0-0----|
|-------------------|------^7-----------------|--5---5---5--7-5-7----|
|---7-7-9-9s11-9----|------^9-----------------|----------------------|
|---x-x-x-x----x-2--|-(2)--^9-----------------|----------------------|
|---5-5-7-7s=9-7-2--|-(2)--^7-----------------|----------------------|
|----------------0--|-(0)---------------------|----------------------|
|
| Gtr II
|                                   PM|                         PM
| E E E E a  E E Q    +Q    Q   +E  S S E +E     Q   E  +E  E E E E
|-------------------|-------------------------|----------------------|
|-------------------|-------------------------|----------------------|
|---7-7-9-9s11-9----|-------------------------|----------------------|
|---x-x-x-x----x-2--|-(2)---2---(2)-----5-(5)S|=12--12-(12)S8-8---2--|
|---5-5-7-7s=9-7-2--|-(2)---2---(2)-----5-(5)S|=12--12-(12)S8-8---2--|
|----------------0--|-(0)---0---(0)-0-0-3-(3)S|=10--10-(10)S6-6-0-0--|


                    G5      D5           Bb5   E5                  G5
   E  E E E  E  E   E  E     E E  Q      E E E E   +H.             Q
|-----7---7-----7------7--|----0--0------0-0-0-0-|-(0)-------------0-------|
|-----7---7-----7------7--|----5--5------7-5-7-5-|-(5)-------------7-------|
|-----9---9-----9------9--|----------------------|-------------------------|
|-------------------------|----------------------|-------------------------|
|-------------------------|----------------------|-------------------------|
|-------------------------|----------------------|-------------------------|
|
|               PM|                          PM                PM|
| +Q    Q   +E  S S E +E     Q    E  +E  E E E E   +Q   Q  +E  S S E +E
|-------------------------|----------------------|-------------------------|
|-------------------------|----------------------|-------------------------|
|-------------------------|----------------------|-------------------------|
|-(2)---2---(2)-----5-(5)S|=12---12-(12)S8-8---2-|-(2)--2--(2)-----5-(5)S==|
|-(2)---2---(2)-----5-(5)S|=12---12-(12)S8-8---2-|-(2)--2--(2)-----5-(5)S==|
|-(0)---0---(0)-0-0-3-(3)S|=10---10-(10)S6-6-0-0-|-(0)--0--(0)-0-0-3-(3)S==|


  D5          Bb5   E5                        D            E5
   Q   E   E  E E E E    E  E E E E E E E   E E E E a  E E E E
|--0---0---0--0-0-0---|-----7---7---7---7-|--------------------|
|--5---5---5--7-5-7---|-----7---7---7---7-|--------------------|
|---------------------|-----9---9---9---9-|---7-7-9-9s11-9-----|
|---------------------|-------------------|---x-x-x-x----x-2-2-|
|---------------------|-------------------|---5-5-7-7s=9-7-2-2-|
|---------------------|-------------------|----------------0-0-|
|
|                 PM
|  Q   E  +E  E E E E   +Q    H       Q     E E E E a  E E E E
|---------------------|-------------------|--------------------|
|---------------------|-------------------|--------------------|
|---------------------|-------------------|---7-7-9-9s11-9-----|
|-12--12-(12)S8-8---2-|-(2)---2-------2---|---x-x-x-x----x-2-2-|
|-12--12-(12)S8-8---2-|-(2)---2-------2---|---5-5-7-7s=9-7-2-2-|
|-10--10-(10)S6-6-0-0-|-(0)---0-------0---|----------------0-0-|


       Esus2        G5      D5          Bb5   E5                    G5
  +Q    H.                   Q   E   E  E E E E    E  E E E  E  E   E  E
|------^7-----------------|--0---0---0--0-0-0---|-----7---7-----7------7----|
|------^7-----------------|--5---5---5--7-5-7---|-----7---7-----7------7----|
|------^9-----------------|---------------------|-----9---9-----9------9----|
|-(2)--^9-----------------|---------------------|---------------------------|
|-(2)--^7-----------------|---------------------|---------------------------|
|-(0)---------------------|---------------------|---------------------------|
|
|               PM|                         PM                  PM|
| +Q    Q   +E  S S E +E     Q   E  +E  E E E E   +Q    Q   +E  S S E +E
|-------------------------|---------------------|---------------------------|
|-------------------------|---------------------|---------------------------|
|-------------------------|---------------------|---------------------------|
|-(2)---2---(2)-----5-(5)S|=12--12-(12)S8-8---2-|-(2)---2---(2)-----5-(5)S==|
|-(2)---2---(2)-----5-(5)S|=12--12-(12)S8-8---2-|-(2)---2---(2)-----5-(5)S==|
|-(0)---0---(0)-0-0-3-(3)S|=10--10-(10)S6-6-0-0-|-(0)---0---(0)-0-0-3-(3)S==|

[ Tab from: http://www.guitartabs.cc/tabs/a/a_perfect_circle/thomas_tab_ver_4.html ]
  D5           Bb5   E5                  G5      D5          Bb5   E5
   E E  Q      E E E E   +H.             Q        Q   E   E  E E E E
|----0--0------0-0-0-0-|-(0)-------------0-----|--0---0---0--0-0-0---|
|----5--5------7-5-7-5-|-(5)-------------7-----|--5---5---5--7-5-7---|
|----------------------|-----------------------|---------------------|
|----------------------|-----------------------|---------------------|
|----------------------|-----------------------|---------------------|
|----------------------|-----------------------|---------------------|
|
|                  PM                PM|                         PM
|  Q    E  +E  E E E E   +Q   Q  +E  S S E +E     Q   E  +E  E E E E
|----------------------|-----------------------|---------------------|
|----------------------|-----------------------|---------------------|
|----------------------|-----------------------|---------------------|
|-12---12-(12)S8-8---2-|-(2)--2--(2)-----5-(5)S|=12--12-(12)S8-8---2-|
|-12---12-(12)S8-8---2-|-(2)--2--(2)-----5-(5)S|=12--12-(12)S8-8---2-|
|-10---10-(10)S6-6-0-0-|-(0)--0--(0)-0-0-3-(3)S|=10--10-(10)S6-6-0-0-|


                            Bridge
                    G5         C5     C5D5E5
                               Gtr II
   W                           Q  E E E E Q     +E Q.     Q   Q
                               |  | | | | |      | |      |   |
                               /  x x / / /      / /      /   /

                               Gtr III
   E  E E E  E  E   E  E     a Q  E E E E E E    E E  E E E E E E
|-----7---7-----7---------||----------------7-|--------------------|
|-----7---7-----7---------||-7s8--8p7-7-----7-|----7---------------|
|-----9---9-----9------7--||------------9-9---|--9----9-7-9-9-9-7--|
|-------------------------||------------------|--------------------|
|-------------------------||------------------|--------------------|
|-------------------------||------------------|--------------------|
|
|                              Gtr IV
|               PM|
| +Q    Q   +E  S S E +E       W                 W
|-------------------------||------------------|--------------------|
|-------------------------||------------------|--------------------|
|-------------------------||------------------|--------------------|
|-(2)---2---(2)-----5-(5)-||------------------|--------------------|
|-(2)---2---(2)-----5-(5)-||------------------|--------------------|
|-(0)---0---(0)-0-0-3-(3)-||------------------|--------------------|


    C5     C5D5E5                         C5     C5D5E5
    Q  E E E E Q    +E Q.     Q   Q       Q  E E E E Q
    |  | | | | |     | |      |   |       |  | | | | |
    /  x x / / /     / /      /   /       /  x x / / /

               ~                                     ~
  a Q  E E E E Q     E E  E E E E E E   a Q  E E E E Q
|-----------------|-------------------|------------------|
|-7s8--8p7-7------|----7--------------|-7s8--8p7-7-------|
|------------9-9--|--9----9-7-9-9-9-7-|------------9-9---|
|-----------------|-------------------|------------------|
|-----------------|-------------------|------------------|
|-----------------|-------------------|------------------|


                        C5     C5D5E5
  +E Q.     Q   Q       Q  E E E E Q    +E Q.     Q   E E
   | |      |   |       |  | | | | |     | |      |   | |
   / /      /   /       /  x x / / /     / /      /   / /

                                   ~
   E E  E E E E E E   a Q  E E E E Q     E E  E E E E E E
|-------------------|-----------------|-------------------||
|----7--------------|-7s8--8p7-7------|----7--------------||
|--9----9-7-9-9-9-7-|------------9-9--|--9----9-7-9-7-9-9-||
|-------------------|-----------------|-------------------||
|-------------------|-----------------|-------------------||
|-------------------|-----------------|-------------------||


 Interlude (End 1/2 Time)
  (C#m)                  (D#7/C#)
  Gtr I
  E  E E E  E  E E S S   E  E E E  E  E Q
|----------------------|--------------------|
|-5------5-------5-----|-4------4-------4---|
|----6------6----------|----6------6--------|
|------6-------6---4h5-|------5-------5-----|
|-4------4-(4)---4-----|-4------4-(4)---4---|
|----------------------|------------------5-|
  Q.     E +Q    Q       Q.     E +Q    E E


  (Amaj7)
  E E E E  Q    E E    E  E Q   E  E Q
|-------------------|--------------------|
|-------------------|--------------------|
|---6---6---------6-|-----6--------6-----|
|-6---6----6----6---|--6----6---6----6---|
|-------------------|--------------------|
|-5-------(5)-5-5---|-(5)-----5-5------4-|
  H       +E  E Q     +Q.     E Q.     E


  (C#m)                (D#7/C#)
  Gtr IV
  W                    H         Q     Q
|--------------------|-----------------------|
|--------------------|----------------12-----|
|--------------------|-----------------------|
|--------------------|-----------------------|
|--------------------|-----------------------|
|--------------------|-----------------------|
|
| Gtr I
| E  E E E  E  E E E   E  E E E  E  E  E E
|--------------------|-----------------------|
|-5------5-------5p4-|-4------4--------4-----|
|----6------6--------|----6------6-----------|
|------6-------6-----|------5-------5--------|
|-4------4-(4)---4-4-|-4------4-(4)----4-----|
|--------------------|-------------------4s5-|
  Q.     E +Q    E E   Q.     E +Q     E S S


  (Amaj7)
   E  E  E  E  E  E  Q      E   Q    E  E  E  Q
|----10------------------|-----10---------12s10\--||
|-10----10s12s10----10---|-10-------10s12---------||
|------------------------|------------------------||
|------------------------|------------------------||
|------------------------|------------------------||
|------------------------|------------------------||
|
|  E  E  E  E  Q     E E    E   E Q     E  E  Q
|------------------------|------------------------||
|------------------------|------------------------||
|-----6-----6----------6-|------6----------6------||
|--6-----6-----6-----6---|--6-----6-----6-----6---||
|------------------------|------------------------||
|--5----------(5)-5--5---|-(5)-------5--5---------||
   H          +E  E  Q     +Q.       E  H


   Interlude (1/2 Time Feel)
    N.C.
    Gtr II
        PM    PM    PM    PM    PM|       PM    PM    PM    PM    PM|
    S S S S S S S S S S S S S S S S   S S S S S S S S S S S S a E S S
||----------------------------------|----------------------------------|
||o---------------------------------|----------------------------------|
||----------------------------------|----------------------------------|
||----------------------------------|----------------------------------|
||o---------------------------------|----------------------------------|
||--3p0-0-3p0-0-3p0-0-3p0-0-3p0-0-0-|-3p0-0-3p0-0-3p0-0-3p0-0-3s5-0-0--|


  1.
      PM    PM    PM    PM    PM|       PM    PM    PM    PM    PM|
  S S S S S S S S S S S S a E S S   S S S S S S S S S S S S a E S S
|---------------------------------|----------------------------------||
|---------------------------------|---------------------------------o||
|---------------------------------|----------------------------------||
|---------------------------------|----------------------------------||
|---------------------------------|---------------------------------o||
|-3p0-0-3p0-0-3p0-0-3p0-0-3s5-0-0-|-3p0-0-3p0-0-3p0-0-3p0-0-3s5-0-0--||


  2.
      PM    PM    PM    PM    PM|       PM    PM    PM    PM
  S S S S S S S S S S S S a E S S   S S S S S S S S S S S S a E S S
|---------------------------------|---------------------------------||
|---------------------------------|---------------------------------||
|---------------------------------|---------------------------------||
|---------------------------------|---------------------------------||
|---------------------------------|---------------------------------||
|-3p0-0-3p0-0-3p0-0-3p0-0-3s5-0-0-|-3p0-0-3p0-0-3p0-0-3p0-0-5s7s5-0-||


   Outro
    G5/E                                                      N.C.
        PM    PM    PM    PM    PM|       PM    PM    PM    PM    PM|
    S S S S S S S S S S S S S S S S   S S S S S S S S S S S S a E S S
||----------------------------------|----------------------------------|
||o---------------------------------|----------------------------------|
||----------------------------------|----------------------------------|
||--5-----5-----5-----5-----5-------|-5-----5-----5-----5--------------|
||o-5-----5-----5-----5-----5-------|-5-----5-----5-----5--------------|
||--3p0-0-3p0-0-3p0-0-3p0-0-3p0-0-0-|-3p0-0-3p0-0-3p0-0-3p0-0-3s5-0-0--|


                                   1.
  G5/E                                                      N.C.
      PM    PM    PM    PM    PM|       PM    PM    PM    PM    PM|
  S S S S S S S S S S S S a E S S   S S S S S S S S S S S S a E S S
|---------------------------------|----------------------------------||
|---------------------------------|---------------------------------o||
|---------------------------------|----------------------------------||
|-5-----5-----5-----5-------------|-5-----5-----5-----5--------------||
|-5-----5-----5-----5-------------|-5-----5-----5-----5-------------o||
|-3p0-0-3p0-0-3p0-0-3p0-0-3s5-0-0-|-3p0-0-3p0-0-3p0-0-3p0-0-3s5-0-0--||


  2.
  G5/E                N.C.          E5
      PM    PM    PM    PM    PM|
  S S S S S S S S S S S S a E S S   E E Q  H
|---------------------------------|-------------*|
|---------------------------------|-------------*|
|---------------------------------|-------------*|
|-5-----5-----5-----5-------------|-2-----------*|
|-5-----5-----5-----5-------------|-2-----------*|
|-3p0-0-3p0-0-3p0-0-3p0-0-3s5-0-0-|-0-----------*|


Duration Legend

---------------
W - whole; H - half; Q - quarter; E - 8th; S - 16th; T - 32nd; X - 64th; a - acciaccatura
+ - note tied to previous; . - note dotted; .. - note double dotted
Uncapitalized letters represent notes that are staccato (1/2 duration)
Irregular groupings are notated above the duration line
Duration letters will always appear directly above the note/fret number it represents the
duration for.  Duration letters with no fret number below them represent rests.  Multi-
bar rests are notated in the form Wxn, where n is the number of bars to rest for.  Low
melody durations appear below the staff

Tablature Legend
----------------
 h   - hammer-on
 p   - pull-off
 b   - bend
 pb  - pre-bend
 r   - bend release (if no number after the r, then release immediately)
 /\  - slide into or out of (from/to "nowhere")
 s   - legato slide
 S   - shift slide
  - natural harmonic
[n]  - artificial harmonic
n(n) - tapped harmonic
 ~   - vibrato
 tr  - trill
 T   - tap
 TP  - trem. picking
 PM  - palm muting
\n/  - tremolo bar dip; n = amount to dip
 \n  - tremolo bar down
 n/  - tremolo bar up
/n\  - tremolo bar inverted dip
 =   - hold bend; also acts as connecting device for hammers/pulls
 <>  - volume swell (louder/softer)
 x   - on rhythm slash represents muted slash
 o   - on rhythm slash represents single note slash

Misc Legend
-----------
 |  - bar
||  - double bar
||o - repeat start
o|| - repeat end
*|  - double bar (ending)
 :  - bar (freetime)
 $  - Segno
 &  - Coda
Tempo markers -  = BPM(8/16=s8/s16), where s8 = swing 8ths, s16 = swing 16ths


***************************************************************************************
* Generated using Power Tab Editor by Brad Larsen - http://powertab.guitarnetwork.org *
***************************************************************************************
Comments