A Perfect Circle - Thomas Chords & Tabs

 

Thomas Chords & Tabs

A Perfect Circle Chords & Tabs

Version: 1 Type: Bass Tab 0 ratings
1 star 2 stars 3 stars 4 stars 5 stars
comments

Thomas Bass Tab

Band- A Perfect Circle
Song- Thomas

Intro 0:23
E  |------------------------------------|
B  |------------------------------------|
F# |--------------5---5---1-1-----------|
Db |---0---0-3-3------------------------|(X4)


     Verse 0:46
E  |-------------------------------------------------------------|
B  |-------------------------------------------------------------|
F# |-------------------------------------------------5-5-7-9-7---|
Db |---8(X22)-10---10--10---8(X22)-10--10---10--10\--------------|


    Chorus 1:11
E  |-------------------------------|-------------------------------|
B  |-------------------------------|-------------------------------|
F# |-------------------------------|--------------5-5-7-9-7--------|
Db |---0---0---3/10-10--6-6----(X3)|---0---0--0---------------0-0--|
[ Tab from: http://www.guitartabs.cc/tabs/a/a_perfect_circle/thomas_btab.html ]
E  |-------------------------------|----------------|
B  |-------------------------------|----------------|
F# |-------------------------------|----------------|
Db |---0---0---3/10-10--6-6----(X3)|---0---0--0-----|


       Post-Chorus 1:55
E  |-----------------------------------|
B  |-----------------------------------|
F# |---3-3-3-3-3-5---------------------|
Db |-----------------0---0---0--0------|(X4)


      Outro   bass comes in at 3:04
E  |----------|--------------------------------------------------|
B  |----------|--------------------------------------------------|
F# |----------|---------------------------------------------5----|
Db |---0---0--|---3p0(X3)---3p0(X4)-5---3p0(X4)-5---3p0(X4)------|

E  |-------------------------------------------------|
B  |-------------------------------------------------|
F# |--------------------------------------------7----|
Db |---3p0(X5)---3p0(X4)-5---3p0(X4-5---3p0(X4)------|
Comments