A Perfect Circle - Thinking Of You Chords & Tabs

 

Thinking Of You Chords & Tabs

A Perfect Circle Chords & Tabs

Version: 3 Type: Tab 0 ratings
1 star 2 stars 3 stars 4 stars 5 stars
comments

Thinking Of You Tab

   
Band- A Perfect Circle
Song- Thinking Of You


          G5                   E5                   A5                 A5open
     x 10 x 12 x x         x 7 x 9 x x         x 12 x 14 x x         x 0 2 2 x x

          C5                   F5                  G5III                 D5
      x 3 5 5 x x         x 8 10 10 x x         3 5 5 x x x          x 5 7 7 x x

Gtr I (Db Gb B E Ab Db) - 'Whammy'
Gtr II (Db Gb B E Ab Db) - 'Guitar 2'
Gtr III (Db Gb B E Ab Db) - 'Guitar 3'
Gtr IV (Db Gb B E Ab Db) - 'Whammy 2'
Gtr V (Db Gb B E Ab Db) - 'Whammy 3'

  Intro
   Q=152
   G5
  4/4
   Gtr I
    Q.     E  +Q     Q     +E   Q.       Q      Q
*|-12-------------------|------10--------9-----------|
*|--------11-(11)---10--|-(10)-----------------------|
*|----------------------|----------------------11----|
*|----------------------|----------------------------|
*|----------------------|----------------------------|
*|----------------------|----------------------------|
|
|  Gtr II
|   Q   E  E  +E  E  Q      E   E   +Q   E  E  +E  E
*|----------------------|----------------------------|
*|----------------------|----------------------------|
*|-12-----12-(12)---12--|------12--(12)----12-(12)---|
*|--x------x---------x--|-------x-----------x--------|
*|-10-----10-(10)---10--|------10--(10)----10-(10)---|
*|----------------------|----------------------------|


  E5
   Q   Q         +H         E     +E   E     +E   H
|------------------------|----------------------------------|
|-11--10--------(10)-----|-10b11r(10)-10b11r(10)-10---------|
|------------------------|----------------------------------|
|------------------------|----------------------------------|
|------------------------|----------------------------------|
|------------------------|----------------------------------|
|
|  Q   E    +E    Q.   E   +E      E   Q          E E +E  E
|------------------------|----------------------------------|
|------------------------|----------------------------------|
|--9---9b10r(9)---9----9-|-(9)---------9------------9-(9)---|
|--x---x----------x----x-|-------------x------------x-------|
|--7---7b8r=(7)---7----7-|-(7)---------7------------7-(7)---|
|------------------------|----------------------------------|


  A5        G5
   Q.        E  +Q     Q     +E   Q.     Q   Q
|-12----------------------|------10------9--------|
|-----------11-(11)---10--|-(10)------------------|
|-------------------------|-----------------11----|
|-------------------------|-----------------------|
|-------------------------|-----------------------|
|-------------------------|-----------------------|
|
|  E     Q   Q      E  Q      E   Q   E  Q   E  E
|-------------------------|-----------------------|
|-------------------------|-----------------------|
|-14b15r14--12--------12--|------12-----12-----12-|
|--x-----x---x---------x--|-------x------x------x-|
|-12b13r12--10--------10--|------10-----10-----10-|
|-------------------------|-----------------------|


  E5
   Q   Q    +H          E     +E   E       +E   H
|--------------------|---------------------------------|
|-11--10---(10)------|-10b11r(10)-10b11r==(10)-10------|
|--------------------|---------------------------------|
|--------------------|---------------------------------|
|--------------------|---------------------------------|
|--------------------|---------------------------------|
|
|  Q   E Q      E Q     E      E.       S   E   Q  Q
|--------------------|---------------------------------|
|--------------------|---------------------------------|
|--9-----9--------9--|---------9------------9---9--9---|
|--x-----x--------x--|---------x------------x---x--x---|
|--7-----7--------7--|---------7------------7---7--7---|
|--------------------|---------------------------------|


  G5
   Q.     E  +Q     Q     +E   Q.       Q     Q
|-12-------------------|------10--------9---------|
|--------11-(11)---10--|-(10)---------------------|
|----------------------|---------------------11---|
|----------------------|--------------------------|
|----------------------|--------------------------|
|----------------------|--------------------------|
|
|  Q   E  Q      E  Q      E   E   +Q   E  Q    E
|----------------------|--------------------------|
|----------------------|--------------------------|
|-12-----12--------12--|------12--(12)----12------|
|--x------x---------x--|--------------------------|
|-10-----10--------10--|------10--(10)----10------|
|----------------------|--------------------------|


  E5
   Q   Q         +H         E     +E   E     +E   H
|------------------------|-------------------------------|
|-11--10--------(10)-----|-10b11r(10)-10b11r(10)-10------|
|------------------------|-------------------------------|
|------------------------|-------------------------------|
|------------------------|-------------------------------|
|------------------------|-------------------------------|
|
|  Q   E    +E    Q.   E   +E      E   Q          E Q  E
|------------------------|-------------------------------|
|------------------------|-------------------------------|
|--9---9b10r(9)---9----9-|-(9)---------9------------9----|
|--x---x----------x----x-|-------------x------------x----|
|--7---7b8r=(7)---7----7-|-(7)---------7------------7----|
|------------------------|-------------------------------|


  A5            G5
   Q.            E  +Q     Q     +E   Q.     Q   Q
|-12--------------------------|------10------9--------|
|---------------11-(11)---10--|-(10)------------------|
|-----------------------------|-----------------11----|
|-----------------------------|-----------------------|
|-----------------------------|-----------------------|
|-----------------------------|-----------------------|
|
|  E     E  +E   E  +E  E  Q      E   Q   E  Q   E  E
|-----------------------------|-----------------------|
|-----------------------------|-----------------------|
|-14b15r14-(14)-12-(12)---12--|------12-----12-----12-|
|--x-----x-------x---------x--|-------x------x------x-|
|-12b13r12-(12)-10-(10)---10--|------10-----10-----10-|
|-----------------------------|-----------------------|


  E5
   Q   Q    +H          E     +E   E     +E   H
|--------------------|---------------------------------|
|-11--10---(10)------|-10b11r(10)-10b11r(10)-10--------|
|--------------------|---------------------------------|
|--------------------|---------------------------------|
|--------------------|---------------------------------|
|--------------------|---------------------------------|
|
|  Q   E Q      E Q     E      Q          E   E E  E E
|--------------------|-----------------------^x---^x---|
|--------------------|-----------------------^x---^x---|
|--9-----9--------9--|---------9-------------^x---^x---|
|--x-----x--------x--|---------x-------------^x---^x---|
|--7-----7--------7--|---------7-------------^x---^x---|
|--------------------|-----------------------^x---^x---|


   Verse
    Gtr I
     Q.    E  +Q    Q     +E   Q.   Q   Q
||--12-----------------|------10----9------|
||o-------11-(11)--10--|-(10)--------------|
||---------------------|---------------11--|
||---------------------|-------------------|
||o--------------------|-------------------|
||---------------------|-------------------|


   Q   Q   +H        E     +E   E     +E   H     4x
|-----------------|------------------------------||
|-11--10--(10)----|-10b11r(10)-10b11r(10)-10----o||
|-----------------|------------------------------||
|-----------------|------------------------------||
|-----------------|-----------------------------o||
|-----------------|------------------------------||


  Wx16
|---------|
|---------|
|---------|
|---------|
|---------|
|---------|


 Chorus
     A5           C5            G5                      A5
                 3/4           4/4                     3/4
  Gtrs II, III
  Q  E E E E Q    E E E E E E   W          +W           E E E E E E
|---------------|-------------|----------|------------|-------------|
|---------------|-------------|----------|------------|-------------|
|----2-2-2-2----|-5-5-5-5-5---|----------|------------|-2-2-2-2-2-2-|
|----2-2-2-2----|-5-5-5-5-5---|-5--------|-(5)--------|-2-2-2-2-2-2-|
|----0-0-0-0----|-3-3-3-3-3---|-5--------|-(5)--------|-0-0-0-0-0-0-|
|---------------|-----------0-|-3--------|-(3)--------|-------------|


  F5                 G5
                    4/4
   E  E  E  E  E E   W          +W           +W
|------------------|----------|------------|--------|
|------------------|----------|------------|--------|
|-10-10-10-10-10---|----------|------------|--------|
|-10-10-10-10-10---|-5--------|-(5)--------|-(5)----|
|--8--8--8--8--8---|-5--------|-(5)--------|-(5)----|
|----------------0-|-3--------|-(3)--------|-(3)----|


              Pre Verse
                  C5D5   A5     C5
  Gtr III
  +W            E E E  E E E  E E
|------------|--------------------|
|------------|--------------------|
|------------|----5S7-----------5S|
|-(5)--------|----5S7----7-7----5S|
|-(5)--------|----3S5----7-7----3S|
|-(3)--------|---------0-5-5------|
|
| Gtr II
| +W            Q   E  Q   E  Q
|------------|--------------------|
|------------|--------------------|
|------------|-12-----12-----12---|
|-(5)--------|--x------x------x---|
|-(5)--------|-10-----10-----10---|
|-(3)--------|--------------------|


  D5    A5               C5D5       A5     C5
  E  E  E E E  E E E   E E E     E  E  E E E
|--------------------|------------------------|
|--------------------|------------------------|
|-7------------------|---5S7---------------5S=|
|-7-----7-7----7---7-|---5S7--------7--7---5S=|
|-5-----7-7----7---7-|---3S5--------7--7---3S=|
|----0--5-5----5---5-|-----------0--5--5------|
|
| E  Q.     E  Q   E   Q   E    +E  Q.     E
|--------------------|------------------------|
|--------------------|------------------------|
|---12--------12-----|-9---9b10r(9)-9------9--|
|----x---------x-----|-x---x--------x------x--|
|---10--------10-----|-7---7b8r=(7)-7------7--|
|--------------------|------------------------|


  D5    A5    F5  E5        C5 D5   A5     C5
   E  E E E E E E E    E     E E  E E E  E E
|-------------------|------------------------|
|-------------------|------------------------|
|--7----------------|--------5S7-----------5S|
|--7----7-7---3---2-|--------5S7----7-7----5S|
|--5----7-7---3---2-|--------3S5----7-7----3S|
|-----0-5-5---1---0-|-------------0-5-5------|
|
| +E  E Q   E Q   E    E     Q    Q   E  Q
|-------------------|------------------------|
|-------------------|------------------------|
|-(9)---9-----9-----|-14b15r14---12-----12---|
|-------x-----x-----|--x-----x----x------x---|
|-(7)---7-----7-----|-12b13r12---10-----10---|
|-------------------|------------------------|


  D5   A5                C5D5  A5    C5
  E  E E E  E E E  E   E E E E E E E E
|--------------------|------------------|
|--------------------|------------------|
|-7------------------|---5S7---------5S=|
|-7----7-7----7----7-|---5S7---7-7---5S=|
|-5----7-7----7----7-|---3S5---7-7---3S=|
|----0-5-5----5----5-|-------0-5-5------|
|
| E  Q   E  Q   E  E   Q   E Q   E Q
|--------------------|------------------|
|--------------------|------------------|
|---12-----12-----12-|-9-----9-----9----|
|----x------x------x-|-x-----x-----x----|
|---10-----10-----10-|-7-----7-----7----|
|--------------------|------------------|


  D5  A5              C5D5   A5     C5
  E E E E E E Q     E E E  E E E  E E
|----------------|--------------------|
|----------------|--------------------|
|-7--------------|----5S7-----------5S|
|-7---7-7---7----|----5S7----7-7----5S|
|-5---7-7---7----|----3S5----7-7----3S|
|---0-5-5---5----|---------0-5-5------|
|
| E Q   E Q   Q     Q   E  Q   E  Q
|----------------|--------------------|
|----------------|--------------------|
|---9---9-9---9--|-12-----12-----12---|
|---x---x-x---x--|--x------x------x---|
|---7---7-7---7--|-10-----10-----10---|
|----------------|--------------------|


  D5    A5               C5D5       A5     C5
  E  E  E E E  E E E   E E E     E  E  E E E
|--------------------|------------------------|
|--------------------|------------------------|
|-7------------------|---5S7---------------5S=|
|-7-----7-7----7---7-|---5S7--------7--7---5S=|
|-5-----7-7----7---7-|---3S5--------7--7---3S=|
|----0--5-5----5---5-|-----------0--5--5------|
|
| E  Q.     E  Q   E   Q   E    +E  Q.     E
|--------------------|------------------------|
|--------------------|------------------------|
|---12--------12-----|-9---9b10r(9)-9------9--|
|----x---------x-----|-x---x--------x------x--|
|---10--------10-----|-7---7b8r=(7)-7------7--|
|--------------------|------------------------|


  D5    A5    F5  E5        C5 D5   A5     C5
   E  E E E E E E E    E     E E  E E E  E E
|-------------------|------------------------|
|-------------------|------------------------|
|--7----------------|--------5S7-----------5S|
|--7----7-7---3---2-|--------5S7----7-7----5S|
|--5----7-7---3---2-|--------3S5----7-7----3S|
|-----0-5-5---1---0-|-------------0-5-5------|
|
| +E  E Q   E Q   E    E     Q    Q   E  Q
|-------------------|------------------------|
|-------------------|------------------------|
|-(9)---9-----9-----|-14b15r14---12-----12---|
|-------x-----x-----|--x-----x----x------x---|
|-(7)---7-----7-----|-12b13r12---10-----10---|
|-------------------|------------------------|


  D5   A5                C5D5  A5    C5
  E  E E E  E E E  E   E E E E E E E E
|--------------------|------------------|
|--------------------|------------------|
|-7------------------|---5S7---------5S=|
|-7----7-7----7----7-|---5S7---7-7---5S=|
|-5----7-7----7----7-|---3S5---7-7---3S=|
|----0-5-5----5----5-|-------0-5-5------|
|
| E  Q   E  Q   E  E   Q   E Q   E Q
|--------------------|------------------|
|--------------------|------------------|
|---12-----12-----12-|-9-----9-----9----|
|----x------x------x-|-x-----x-----x----|
|---10-----10-----10-|-7-----7-----7----|
|--------------------|------------------|


                    Verse
  D5  A5               C5D5  A5    C5  D5  A5              C5D5  A5    C5
  E E E E E E Q      E E E E E E E E   E E E E E E E E   E E E E E E E E
|----------------||------------------|-----------------|------------------|
|----------------||o-----------------|-----------------|------------------|
|-7--------------||----5S7---------5S|=7---------------|---5S7---------5S=|
|-7---7-7---7----||----5S7---7-7---5S|=7---7-7---7---7-|---5S7---7-7---5S=|
|-5---7-7---7----||o---3S5---7-7---3S|=5---7-7---7---7-|---3S5---7-7---3S=|
|---0-5-5---5----||--------0-5-5-----|---0-5-5---5---5-|-------0-5-5------|
|
| E Q   E Q   Q      W                 W                 W
|----------------||------------------|-----------------|------------------|
|----------------||o-----------------|-----------------|------------------|
|---9---9-9---9--||------------------|-----------------|------------------|
|---x---x-x---x--||------------------|-----------------|------------------|
|---7---7-7---7--||o-----------------|-----------------|------------------|
|----------------||------------------|-----------------|------------------|


  D5  A5    F5  E5    C5D5  A5    C5  D5  A5              C5D5  A5    C5
  E E E E E E E E   E E E E E E E E   E E E E E E E E   E E E E E E E E
|-----------------|-----------------|-----------------|------------------|
|-----------------|-----------------|-----------------|------------------|
|-7---------------|---5S7---------5S|=7---------------|---5S7---------5S=|
|-7---7-7---3---2-|---5S7---7-7---5S|=7---7-7---7---7-|---5S7---7-7---5S=|
|-5---7-7---3---2-|---3S5---7-7---3S|=5---7-7---7---7-|---3S5---7-7---3S=|
|---0-5-5---1---0-|-------0-5-5-----|---0-5-5---5---5-|-------0-5-5------|


                    Chorus
  D5  A5                A5           C5            G5
                                    3/4           4/4
                        Gtrs II, III
  E E E E E E Q      Q  E E E E Q    E E E E E E   W
|-----------------||---------------|-------------|------|
|----------------o||---------------|-------------|------|
|-7---------------||----2-2-2-2----|-5-5-5-5-5---|------|
|-7---7-7---7-----||----2-2-2-2----|-5-5-5-5-5---|-5----|
|-5---7-7---7----o||----0-0-0-0----|-3-3-3-3-3---|-5----|
|---0-5-5---5-----||---------------|-----------0-|-3----|


               A5            F5                 G5
              3/4                              4/4
  +W           E E E E E E    E  E  E  E  E E   H.      E E   +H     H
|------------|-------------|------------------|-------------|-------------|
|------------|-------------|------------------|-------------|-------------|
|------------|-2-2-2-2-2-2-|-10-10-10-10-10---|-------------|-------------|
|-(5)--------|-2-2-2-2-2-2-|-10-10-10-10-10---|-5---------5-|-(5)----5----|
|-(5)--------|-0-0-0-0-0-0-|--8--8--8--8--8---|-5---------5-|-(5)----5----|
|-(3)--------|-------------|----------------0-|-3-------0-3-|-(3)----3----|


  A5            C5            G5                      A5
 3/4                         4/4                     3/4
  E E E E E E   E E E E E E   W          +W           E E E E E E
|-------------|-------------|----------|------------|-------------|
|-------------|-------------|----------|------------|-------------|
|-2-2-2-2-2-2-|-5-5-5-5-5---|----------|------------|-2-2-2-2-2-2-|
|-2-2-2-2-2-2-|-5-5-5-5-5---|-5--------|-(5)--------|-2-2-2-2-2-2-|
|-0-0-0-0-0-0-|-3-3-3-3-3---|-5--------|-(5)--------|-0-0-0-0-0-0-|
|-------------|-----------0-|-3--------|-(3)--------|-------------|


  F5                 G5
                    4/4
   E  E  E  E  E E   W          +W           +W
|------------------|----------|------------|--------|
|------------------|----------|------------|--------|
|-10-10-10-10-10---|----------|------------|--------|
|-10-10-10-10-10---|-5--------|-(5)--------|-(5)----|
|--8--8--8--8--8---|-5--------|-(5)--------|-(5)----|
|----------------0-|-3--------|-(3)--------|-(3)----|


                Bridge
                 G5
  +W             E E E E Q  E E   E E Q  E E Q    E E E E Q  E E
|------------||-----------------|---------------|----------------|
|------------||o----------------|---------------|----------------|
|------------||-----------------|---------------|----------------|
|-(5)--------||--5----------5---|--------5------|-5----------5---|
|-(5)--------||o-5-5-5-5----5-5-|-5-5----5-5----|-5-5-5-5----5-5-|
|-(3)--------||--3-3-3-3----3-3-|-3-3----3-3----|-3-3-3-3----3-3-|

[ Tab from: http://www.guitartabs.cc/tabs/a/a_perfect_circle/thinking_of_you_tab_ver_3.html ]
                   Solo
                    N.C.
  Gtrs II, III
  E E Q  E E Q      E E E E Q    E E
|----------------||------------------|
|---------------o||------------------|
|----------------||------------------|
|-5------5-------||-5------------5---|
|-5-5----5------o||-5-5-5-5------5-5-|
|-3-3----3-------||-3-3-3-3------3-3-|
|
| Gtr I
| W                 E E E E E  E E E
|----------------||-8-8-8-8-8-10-7-7-|
|---------------o||-x-x-x-x-x--x-x-x-|
|----------------||-5-5-5-5-5--7-4-4-|
|----------------||------------------|
|---------------o||------------------|
|----------------||------------------|


  E E Q    E  E  Q      E  E  E  E  Q    E  E
|--------------------|------------------------|
|--------------------|------------------------|
|--------------------|------------------------|
|----------5---------|--5----------------5----|
|-5-5------5---------|--5--5--5--5-------5--5-|
|-3-3------3---------|--3--3--3--3-------3--3-|
|
| E E E E  E  E  E E    E  E  E  E  E E  E  E
|-7-7-7-7-12-12-12-7-|-10-10-10-10-10-7-10-10-|
|-x-x-x-x--x--x--x-x-|--x--x--x--x--x-x--x--x-|
|-4-4-4-4--9--9--9-4-|--7--7--7--7--7-4--7--7-|
|--------------------|------------------------|
|--------------------|------------------------|
|--------------------|------------------------|


   E  E  Q    E  E  Q      E E E E Q    E E
|------------------------|------------------|
|------------------------|------------------|
|------------------------|------------------|
|-------------5----------|-5------------5---|
|--5--5-------5----------|-5-5-5-5------5-5-|
|--3--3-------3----------|-3-3-3-3------3-3-|
|
|  E  E  E E  E  E  E  E   E E E E E  E E E
|-10-10-10-7-10-10-10-10-|-7s8-8-8-8-10-7-7-|
|--x--x--x-x--x--x--x--x-|-x---x-x-x--x-x-x-|
|--7--7--7-4--7--7--7--7-|-4s5-5-5-5--7-4-4-|
|------------------------|------------------|
|------------------------|------------------|
|------------------------|------------------|


  E E Q      E  E Q      E E E E   Q     E E     E  E Q    E E   E   +E
|---------------------|----------------------|----------------------------|
|---------------------|----------------------|----------------------------|
|---------------------|----------------------|----------------------------|
|------------5--------|--5---------------5---|----------------------------|
|-5-5--------5--------|--5-5-5-5---------5-5-|---5--5------5--------------|
|-3-3--------3--------|--3-3-3-3---------3-3-|---3--3------3-----1b2-(1)--|
|
| E E E S S  Q.     E    H        +E  E  Q      +Q.     E  Q    +Q
|-7-7-7-5s7s17--------|-15-------(15)---15---|-(15)-------15---(15)-------|
|-x-x-x-x-----------0-|--0------------0--x---|----------0--x--------------|
|-4-4-4-2s4s14--------|-12-------(12)---12---|-(12)-------12---(12)-------|
|---------------------|----------------------|----------------------------|
|---------------------|----------------------|----------------------------|
|---------------------|----------------------|----------------------------|


  E E E E  Q     E E    E  E Q   E E Q     E E   E   E  Q     E E
|--------------------|------------------|-------------------------|
|--------------------|------------------|-------------------------|
|--------------------|------------------|-------------------------|
|-5--------------5---|-----------5------|--5------------------5---|
|-5-5-5-5--------5-5-|--5--5-----5------|--5-5---5---5--------5-5-|
|-3-3-3-3--------3-3-|--3--3-----3------|--3-3---3---3--------3-3-|
|
| E E E E +E   E Q     +H        Q   Q     Q    +E   E  E  E  Q
|-7s8-8-8-(8)-10-7---|-(7)------12---7--|-13---(13)-12-13-15-13---|
|-x---x-x------x-x---|-----------x---x--|--x---------x--x--x--x---|
|-4s5-5-5-(5)--7-4---|-(4)-------9---4--|-10---(10)--9-10-12-10---|
|--------------------|------------------|-------------------------|
|--------------------|------------------|-------------------------|
|--------------------|------------------|-------------------------|


   E     E  Q        E  E Q      E E E E  Q     E E   E E  Q   E E   Q
|------------------------------|--------------------|---------------------|
|------------------------------|--------------------|---------------------|
|------------------------------|--------------------|---------------------|
|--------------------5---------|-5--------------5---|----------5----------|
|--5-----5-----------5---------|-5-5-5-5--------5-5-|-5-5------5----------|
|--3-----3-----------3---------|-3-3-3-3--------3-3-|-3-3------3----------|
|
|  S  E.    E  S  S  Q.      E   E E E E +E   E E E   E Q.     Q    +E. S
|-12-13----15-13s12-10------12-|-7-8-8-8-(8)-10-7-7-|-7-7-----17---(17)---|
|--x--x-----x--x-----x-------x-|-x-x-x-x------x-x-x-|-x-x------x--------0-|
|--9-10----12-10s=9--7-------9-|-4-5-5-5-(5)--7-4-4-|-4-4-----14---(14)---|
|------------------------------|--------------------|---------------------|
|------------------------------|--------------------|---------------------|
|------------------------------|--------------------|---------------------|


   E E  E      E   Q   E E    E    E Q   E    E  E   +E
|--------------------------|----------------------------------|
|--------------------------|----------------------------------|
|--------------------------|----------------------------------|
|--5-------------------5---|----------------------------------|
|--5-5--5------5-------5-5-|--5----5-----5--------------------|
|--3-3--3------3-------3-3-|--3----3-----3-------1b2-(1)------|
|
|                            Gtr IV
|  Q    E     +E   Q   Q      H          H                 a
|-15---15b16r(15)-15--15---|-19b25------25b31------------(25)-|
|--x----x----------x---x---|--x----------x--------------------|
|-12---12b13r(12)-12--12---|-16b22------22b28------------(22)-|
|--------------------------|----------------------------------|
|--------------------------|----------------------------------|
|--------------------------|----------------------------------|
|
| Gtr V
|  W                          H          Q       Q
|--------------------------|--------------------22------------|
|--------------------------|---------------------x------------|
|--------------------------|--------------------19------------|
|--------------------------|----------------------------------|
|--------------------------|----------------------------------|
|--------------------------|----------------------------------|


   E  E E E  Q   E E     E  E  Q   E E  Q
|--------------------|----------------------|
|--------------------|----------------------|
|--------------------|----------------------|
|--5-------------5---|-------------5--------|
|--5--5-5-5------5-5-|---5--5------5--------|
|--3--3-3-3------3-3-|---3--3------3--------|
|
|  H.            Q      +Q     Q   Q    Q
|-19------------20---|-(20)---22--20---19---|
|--x-------------x---|---------x---x----x---|
|-16------------17---|-(17)---19--17---16---|
|--------------------|----------------------|
|--------------------|----------------------|
|--------------------|----------------------|
|
|  H         Q   Q       Q     Q   Q    Q
|-----------17--19---|--20----22--20---19---|
|------------x---x---|---x-----x---x----x---|
|-----------14--16---|--17----19--17---16---|
|--------------------|----------------------|
|--------------------|----------------------|
|--------------------|----------------------|


   E  E  E E   Q    E E     E  E   Q      E  E      Q
|-----------------------|----------------------------------|
|-----------------------|----------------------------------|
|-----------------------|----------------------------------|
|--5----------------5---|-----------------5----------------|
|--5--5--5-5--------5-5-|---5--5----------5----------------|
|--3--3--3-3--------3-3-|---3--3----------3----------------|
|
|  E  Q.      +H            Q     +E.  S  Q         Q
|-12s13------(13)-------|--12----(12)--8s12--------10------|
|--x--------------------|---x----------x------------x------|
|--9s10------(10)-------|---9-----(9)--5s=9---------7------|
|-----------------------|----------------------------------|
|-----------------------|----------------------------------|
|-----------------------|----------------------------------|
|
|  H           Q    Q      +Q      E.  S  E.    S  +S   E.
|-13---------------12---|-(12)-----7--10-12----------------|
|--x----------12----x---|--------------x--x----10-(10)-10--|
|-10----------------9---|--(9)---------7--9-----x-------x--|
|-----------------------|-----------------------7--(7)--7--|
|-----------------------|----------------------------------|
|-----------------------|----------------------------------|


   E  E  E  E   Q      E  E
|----------------------------|
|----------------------------|
|----------------------------|
|--5-------------------5-----|
|--5--5--5--5----------5--5--|
|--3--3--3--3----------3--3--|
|
|  E  E  E  E  +E   E  Q
|-12s13s12-10-(10)-12-13-----|
|--x--------x-------x--x-----|
|--9s10s=9--7--(7)--9-10-----|
|----------------------------|
|----------------------------|
|----------------------------|
|
|  Q     E  E   E   E  E  E
|-------------------8-12s13--|
|-10-----8--8-------x--x-----|
|--x-----x--x-------5--9s10--|
|--7-----5--5----------------|
|----------------------------|
|----------------------------|


   E  E  Q     E  E  Q     E  E E  E   Q      E  E
|-----------------------|--------------------------|
|-----------------------|--------------------------|
|-----------------------|--------------------------|
|--------------5--------|--5------------------5----|
|--5--5--------5--------|--5--5-5--5----------5--5-|
|--3--3--------3--------|--3--3-3--3----------3--3-|
|
|  E  Q     E  E  E  Q     E  Q    E  +E   E  Q
|-15s13----12s13s15-12--|-12s13-----------13s10----|
|--x--------x--------x--|--x------13-(13)--x-------|
|-12s10-----9s10s12--9--|--9s10-----------10s=7----|
|-----------------------|--------------------------|
|-----------------------|--------------------------|
|-----------------------|--------------------------|
|
|  Q     E  E  E  E  Q     E  Q    E  +Q      E  E
|-10----13-----------8--|-12-13---13-(13)----12-13-|
|--x-----x-13-10--8--x--|--x--x---------------x--x-|
|--7----10--x--x--x--5--|--9-10---------------9-10-|
|----------10--7--5-----|--------------------------|
|-----------------------|--------------------------|
|-----------------------|--------------------------|


    E   E   Q    E  E  E   +E
|------------------------------|
|------------------------------|
|------------------------------|
|------------------------------|
|---5---5--------5-------------|
|---3---3--------3-----1b2-(1)-|
|
|  +Q       E E  E  E  Q
|-(10)-------------------------|
|----------12---12s10s=8-------|
|--(7)------x----x-------------|
|-----------9----9s=7s=5-------|
|------------------------------|
|------------------------------|
|
|  +E   Q.       E  E  Q
|-(13)-13-------12-13-13-------|
|----------------x--x--x-------|
|-(10)-----------9-10-10-------|
|------------------------------|
|------------------------------|
|------------------------------|


  E E E E  Q     E E   E E Q    E  E Q
|--------------------|-------------------|
|--------------------|-------------------|
|--------------------|-------------------|
|-5--------------5---|----------5--------|
|-5-5-5-5--------5-5-|-5-5------5--------|
|-3-3-3-3--------3-3-|-3-3------3--------|
|
| E E E E +E   E Q     E E E E  E  E E E
|-7s8-8-8-(8)-10-7---|-7-7-7-7-12-12-7-7-|
|-x---x-x------x-x---|-x-x-x-x--x--x-x-x-|
|-4s5-5-5-(5)--7-4---|-4-4-4-4--9--9-4-4-|
|--------------------|-------------------|
|--------------------|-------------------|
|--------------------|-------------------|
|
| E E E E +E   E Q     E E E E  E  E E E
|-7s8-8-8-(8)-10-7---|-7-7-7-7-12-12-7-7-|
|-x---x-x------x-x---|-x-x-x-x--x--x-x-x-|
|-4s5-5-5-(5)--7-4---|-4-4-4-4--9--9-4-4-|
|--------------------|-------------------|
|--------------------|-------------------|
|--------------------|-------------------|


   E  E  E  E   Q      E  E    E E  Q    E  E  Q
|---------------------------|-----------------------|
|---------------------------|-----------------------|
|---------------------------|-----------------------|
|--5-------------------5----|------------5----------|
|--5--5--5--5----------5--5-|--5-5-------5----------|
|--3--3--3--3----------3--3-|--3-3-------3----------|
|
|  E  E  E  E   E   E  E  E    Q    Q    E  E  E  E
|-10-10-10-10--10--10-10-10-|-10--------13-12-10-12-|
|--x--x--x--x---x---x--x--x-|--x---------x--x--x--x-|
|--7--7--7--7---7---7--7--7-|--7--------10--9--7--9-|
|---------------------------|-----------------------|
|---------------------------|-----------------------|
|---------------------------|-----------------------|
|
|  H           +E   E  E  E    Q    E E  E  E  E  E
|-10----------(10)----12-13-|-15---10-7-13-12--7-13-|
|--x---------------12--x--x-|--x----x-x--x--x--x--x-|
|--7-----------(7)-----9-10-|-12----7-4-10--9--7-10-|
|---------------------------|-----------------------|
|---------------------------|-----------------------|
|---------------------------|-----------------------|


  E E E E  E   E E E    E  E E E  E E  E E    E  E  E    E     E E  E E
|--------------------|---------------------|----------------------------|
|--------------------|---------------------|----------------------------|
|--------------------|---------------------|----------------------------|
|--------------------|---------------------|----------------------------|
|-5-5-5-5--5---5-5-5-|--5--5-5-5--5-5--5-5-|--5--5--5----5-----5-5--5-5-|
|-3-3-3-3--3---3-3-3-|--3--3-3-3--3-3--3-3-|--3--3--3----3-----3-3--3-3-|
|
| E E E E +E   E Q     +Q    Q    Q    Q      H.                    Q
|-7s8-8-8-(8)-10-7---|-(7)-------17--------|-15--------------------19---|
|-x---x-x------x-x---|------------x--------|--x---------------------x---|
|-4s5-5-5-(5)--7-4---|-(4)-------14---16---|-12--------------------16---|
|--------------------|---------------------|----------------------------|
|--------------------|---------------------|----------------------------|
|--------------------|---------------------|----------------------------|
|
|                                                   |---3---|
| E E E E +E   E Q     +H         H           Q     E  E    E  Q    E E
|-7s8-8-8-(8)-10-7---|-(7)-------17--------|-15-------------------------|
|-x---x-x------x-x---|------------x--------|--x----15p12h==15-12---15---|
|-4s5-5-5-(5)--7-4---|-(4)-------14--------|-12-------------------------|
|--------------------|---------------------|----------------------------|
|--------------------|---------------------|----------------------------|
|--------------------|---------------------|----------------------------|


                        Out Chorus
                               A5
    E  E E E   E  E Q      Q   E E   E  E Q
|----------------------|---------------------|
|----------------------|---------------------|
|----------------------|-------2-2---2--2----|
|----------------------|-------2-2---2--2----|
|---5--5-5-5---5-------|-------0-0---0--0----|
|---3--3-3-3---3-------|---------------------|
|
|   H         +H          +H        +H
|--19--------(19)------|-(19)------(19)------|
|----------------------|---------------------|
|--16--------(16)------|---------------------|
|----------------------|---------------------|
|----------------------|---------------------|
|----------------------|---------------------|
|
|   H         +H           W
|----------------------|--17-----------------|
|-(15)-------(15)------|---------------------|
|----------------------|---------------------|
|----------------------|---------------------|
|----------------------|---------------------|
|----------------------|---------------------|


  C5                  G5
 3/4                 4/4
    E  E E E   E  E     W
|-------------------|-----------------|
|-------------------|-----------------|
|---5--5-5-5---5----|-----------------|
|---5--5-5-5---5----|---5-------------|
|---3--3-3-3---3----|---5-------------|
|-----------------0-|---3-------------|
|
|  +H         +Q       +H      +H
|-(19)-------(19)---|-(19)----(19)----|
|-------------------|-----------------|
|-------------------|-----------------|
|-------------------|-----------------|
|-------------------|-----------------|
|-------------------|-----------------|
|
|  +H.                 +W
|-(17)--------------|-(17)------------|
|-------------------|-----------------|
|-------------------|-----------------|
|-------------------|-----------------|
|-------------------|-----------------|
|-------------------|-----------------|


                A5            F5            G5
               3/4                         4/4
   +W           E E E E E E   E E E E E E   H.      E E   +H     H
|-------------|-------------|-------------|-------------|-------------|
|-------------|-------------|-------------|-------------|-------------|
|-------------|-2-2-2-2-2-2-|-------------|-------------|-------------|
|--(5)--------|-2-2-2-2-2-2-|-3-3-3-3-3---|-5---------5-|-(5)----5----|
|--(5)--------|-0-0-0-0-0-0-|-3-3-3-3-3---|-5---------5-|-(5)----5----|
|--(3)--------|-------------|-1-1-1-1-1-0-|-3-------0-3-|-(3)----3----|
|
|   W           W             W             W              W
|-(17)--------|-------------|-------------|-------------|-------------|
|-------------|-------------|-------------|-------------|-------------|
|-------------|-------------|-------------|-------------|-------------|
|-------------|-------------|-------------|-------------|-------------|
|-------------|-------------|-------------|-------------|-------------|
|-------------|-------------|-------------|-------------|-------------|


  A5            C5            G5                      A5
 3/4                         4/4                     3/4
  E E E E E E   E E E E E E   W          +W           E E E E E E
|-------------|-------------|----------|------------|-------------|
|-------------|-------------|----------|------------|-------------|
|-2-2-2-2-2-2-|-5-5-5-5-5---|----------|------------|-2-2-2-2-2-2-|
|-2-2-2-2-2-2-|-5-5-5-5-5---|-5--------|-(5)--------|-2-2-2-2-2-2-|
|-0-0-0-0-0-0-|-3-3-3-3-3---|-5--------|-(5)--------|-0-0-0-0-0-0-|
|-------------|-----------0-|-3--------|-(3)--------|-------------|


  F5            G5
               4/4
  E E E E E E   W          +W
|-------------|----------|--------*|
|-------------|----------|--------*|
|-------------|----------|--------*|
|-3-3-3-3-3---|-5--------|-(5)----*|
|-3-3-3-3-3---|-5--------|-(5)----*|
|-1-1-1-1-1-0-|-3--------|-(3)----*|


Duration Legend
---------------
W - whole; H - half; Q - quarter; E - 8th; S - 16th; T - 32nd; X - 64th; a - acciaccatura
+ - note tied to previous; . - note dotted; .. - note double dotted
Uncapitalized letters represent notes that are staccato (1/2 duration)
Irregular groupings are notated above the duration line
Duration letters will always appear directly above the note/fret number it represents the
duration for.  Duration letters with no fret number below them represent rests.  Multi-
bar rests are notated in the form Wxn, where n is the number of bars to rest for.  Low
melody durations appear below the staff

Tablature Legend
----------------
 h   - hammer-on
 p   - pull-off
 b   - bend
 pb  - pre-bend
 r   - bend release (if no number after the r, then release immediately)
 /\  - slide into or out of (from/to "nowhere")
 s   - legato slide
 S   - shift slide
  - natural harmonic
[n]  - artificial harmonic
n(n) - tapped harmonic
 ~   - vibrato
 tr  - trill
 T   - tap
 TP  - trem. picking
 PM  - palm muting
\n/  - tremolo bar dip; n = amount to dip
 \n  - tremolo bar down
 n/  - tremolo bar up
/n\  - tremolo bar inverted dip
 =   - hold bend; also acts as connecting device for hammers/pulls
 <>  - volume swell (louder/softer)
 x   - on rhythm slash represents muted slash
 o   - on rhythm slash represents single note slash

Misc Legend
-----------
 |  - bar
||  - double bar
||o - repeat start
o|| - repeat end
*|  - double bar (ending)
 :  - bar (freetime)
 $  - Segno
 &  - Coda
Tempo markers -  = BPM(8/16=s8/s16), where s8 = swing 8ths, s16 = swing 16ths


***************************************************************************************
* Generated using Power Tab Editor by Brad Larsen - http://powertab.guitarnetwork.org *
***************************************************************************************
Comments