A Perfect Circle - Thinking Of You Chords & Tabs

 

Thinking Of You Chords & Tabs

A Perfect Circle Chords & Tabs

Version: 1 Type: Tab 0 ratings
1 star 2 stars 3 stars 4 stars 5 stars
comments

Thinking Of You Tab

Keyboard Part:
 e|--21-15------19-18-----------------
 B|---------19---------17--20-19--17^-
 G|-----------------------------------    
 D|-----------------------------------
 A|-----------------------------------
 E|-----------------------------------

 Main Part ( Verse ) figure out how many times to play each chord
 e|--------------|
 B|--------------|
 G|--2-----2-----|
 D|--2--4--2--2--|
 A|--0--4--0--2--|
 E|-----2-----0--|
[ Tab from: http://www.guitartabs.cc/tabs/a/a_perfect_circle/thinking_of_you_tab.html ]
 Chorus
 e|----------------------|
 B|----------------------|
 G|----------------7-----|
 D|--4--7--2----4--7--2--|
 A|--4--7--2----4--5--2--|
 E|--2--5--0----2-----0--|

 Verse Thing ( Listen for it )
 e|--------|
 B|--------|
 G|--7--6--|
 D|--x--x--|
 A|--5--4--|
 E|--------|

 "Thinking of You" Part
 e|-----|
 B|-----|
 G|-----|
 D|--2--| over and over again
 A|--2--|
 E|--0--|

there are a few variations of this song (live version, studio version blah blah) its 
the same stuff just in a different order, its not too hard to work out.
Comments