A Perfect Circle - Thinking Of You Chords & Tabs

 

Thinking Of You Chords & Tabs

A Perfect Circle Chords & Tabs

Version: 1 Type: Bass Tab 0 ratings
1 star 2 stars 3 stars 4 stars 5 stars
comments

Thinking Of You Bass Tab

   
Tuning-C#,F#,B,E

E -|--------------------------------|
B -|--------------------------------|  x8
F#-|-3-5---------3-5----------------|
C#-|-----3-5-5-------3-5-5---5---5--|

E -|-----------------------------------|
B -|-14-------12-11--------------------|  x2
F#-|----13-12-------10-/13-12----10-11-|
C#-|--------------------------10-------|

E -|--------------------------------|
B -|--------------------------------|  x8
F#-|-3-5---------3-5----------------|
C#-|-----3-5-5-------3-5-5---5---5--|

E -|-------------------------------------------|
B -|-------------------------------------------|
F#-|---------------------------------8-8-------|
C#-|-5-5-5-5--8--8-8-8----3~----5-5-------3~---|

E -|--------------------------------|
B -|--------------------------------|  x16
F#-|-3-5---------3-5----------------|
C#-|-----3-5-5-------3-5-5---5---5--|
[ Tab from: http://www.guitartabs.cc/tabs/a/a_perfect_circle/thinking_of_you_btab.html ]
E -|---------------------------------------------------|
B -|---------------------------------------------------|
F#-|---------------------------------8-8---------------|
C#-|-5-5-5-5--8--8-8-8----3~----5-5-------3~--1h3h5-3~-|

E -|-------------------------------------------|
B -|-------------------------------------------|
F#-|---------------------------------8-8-------|
C#-|-5-5-5-5--8--8-8-8----3~----5-5-------3~---|

E -|--------------------------------|
B -|--------------------------------|  x20
F#-|--------------------------------|
C#-|-3-3-3-3---3-3-3-3---3-3--------|

E -|---------------------------------------------------|
B -|---------------------------------------------------|
F#-|---------------------------------8-8---------------|
C#-|-5-5-5-5--8--8-8-8----3~----5-5-------3~--1h3h5-3~-|

E -|-------------------------------------------|
B -|-------------------------------------------|
F#-|---------------------------------8-8-------|
C#-|-5-5-5-5--8--8-8-8----3~----5-5-------3~---|

Thanks, please rate it after you learn it.
Comments