A Perfect Circle - The Package Chords & Tabs

 

The Package Chords & Tabs

A Perfect Circle Chords & Tabs

Version: 5 Type: Tab 0 ratings
1 star 2 stars 3 stars 4 stars 5 stars
comments

The Package Tab

   
A Perfect Circle
The Package

I am Gordon Julian and this is my tab.
This is 100% correct. I promise. 

Tuning: Drop C (of course)
Thats 1 1/2 steps down.

Guitar 1 (intro)
e|-------------------------------------------------------------------------|
B|----15----15----14----14-----14------------17--------17--------17--------|
G|-16----16----16----16----16-----16--16--16----16--16----16--16-----------|
D|-------------------------------------------------------------------------|
A|-------------------------------------------------------------------------|
E|-------------------------------------------------------------------------|

e|----14-------------------------------------------------------------------|
B|-------17--------15----15----14----14-------------17--------17-----------|
G|-16-------16--16----16----16----16----16--16--16-----16--16----16--16--16|
D|-------------------------------------------------------------------------|
A|-------------------------------------------------------------------------|
E|-------------------------------------------------------------------------|

Guitar 2 (intro)
e|-14--14----------------17--17-------------15--15-------------14--14------|
B|--------0---0-----------------0---0--------------0---0--------------0---0|
G|-------------------------------------------------------------------------|
D|-------------------------------------------------------------------------|
A|-------------------------------------------------------------------------|
E|-------------------------------------------------------------------------|

Guitar 1 (verse)
e|-------------------------------------------------------------------------|
B|-------------------------------------------------------------------------|
G|-------------------------------------------------------------------------|
D|-------------------------------------------------------------------------|
A|--16-16-16-16/14-14-14-14-14-14/17-17-17-17-17-17-17-17-17-17/19-19-17---|
E|-------------------------------------------------------------------------|

e|-------------------------------------------------------------------------|
B|-------------------------------------------------------------------------|
G|-------------------------------------------------------------------------|
D|-------------------------------------------------------------------------|
A|-16-1616-16-16/14-14-14-14-14-14/9-9-9-9-9-9-9b---9-9/16-16-16-16-16/14--|
E|-------------------------------------------------------------------------|

e|-------------------------------------------------------------------------|
B|-------------------------------------------------------------------------|
G|-------------------------------------------------------------------------|
D|-------------------------------------------------------------------------|
A|-14-14-14-14-14/17-17-17-17-17-17-17-17-17-17/19-19-16-16-16-16-16-16/14-|
E|-------------------------------------------------------------------------|

e|-------------------------------------------------------------------------|
B|-------------------------------------------------------------------------|
G|-------------------------------------------------------------------------|
D|-------------------------------------------------------------------------|
A|-14-14-14-14-14/9-9-9-9-9-9-9-9-9b-9/------------------------------------|
E|-------------------------------------------------------------------------|

Guitar 2 (verse)
e|-17-17---------15-15---------14-14---------17-17-------------------------|
B|------0--0-----------0--0----------0--0----------0--0--------------------|
G|-------------------------------------------------------------------------|
D|-------------------------------------------------------------------------|
A|-------------------------------------------------------------------------|
E|-------------------------------------------------------------------------|

e|-15-15------15-15-------14-14------14-14-------17-17------17-17----------|
B|-------0--0-------------------0--0-------------------0--0----------------|
G|-------------------------------------------------------------------------|
D|-------------------------------------------------------------------------|
A|-------------------------------------------------------------------------|
E|-------------------------------------------------------------------------|

e|-14-14------14-14-------17-17------17-17-------15-15------15-15----------|
B|-------0--0-------------------0--0-------------------0--0----------------|
G|-------------------------------------------------------------------------|
D|-------------------------------------------------------------------------|
A|-------------------------------------------------------------------------|
E|-------------------------------------------------------------------------|
    Clever g...

Guitar 1 (interlude)
e|-------------------------------------------------------------------------|
B|-------------------------------------------------------------------------|
G|-------------------------------------------------------------------------|
D|-------------------------------------------------------------------------|
A|-16-16-16-16-16-16-16-16-16-14-17-17-17-17-17-17-17-17-17-17-17/16-16----|
E|-------------------------------------------------------------------------|

e|-------------------------------------------------------------------------|
B|-------------------------------------------------------------------------|
G|-------------------------------------------------------------------------|
D|-------------------------------------------------------------------------|
A|-16-16-16-16-16/14-14-14-14-14-14/9-9-9-9-9-9-9-9-9b-9/------------------|
E|-------------------------------------------------------------------------|

Guitar 2 (interlude)
e|-17-17-17-17-17-17-17-17-17-17-17-17-17-17-17-17-15-15-15-15-15-15-15-15-|
B|-------------------------------------------------------------------------|
G|-------------------------------------------------------------------------|
D|-------------------------------------------------------------------------|
A|-------------------------------------------------------------------------|
E|-------------------------------------------------------------------------|

e|-15-15-15-15-15-15-15-15-14-14-14-14-14-14-14-14-14-14-14-14-14-14-14-14-|
B|-------------------------------------------------------------------------|
G|-------------------------------------------------------------------------|
D|-------------------------------------------------------------------------|
A|-------------------------------------------------------------------------|
E|-------------------------------------------------------------------------|

e|-17-17-17-17-17-17-17-17-17-17-17-17-17----------------------------------|
B|-------------------------------------------------------------------------|
G|-------------------------------------------------------------------------|
D|-------------------------------------------------------------------------|
A|-------------------------------------------------------------------------|
E|-------------------------------------------------------------------------|

Guitar 1 (chorus)
e|-15--------14--------17--------15-------14-------17-------15-------------|
B|--0-(x13)---0-(x15)---0-(x14)---0-(x16)--0-(x14)--0-(x16)--0-(x16)-------|
G|-12--------11--------14--------12-------11-------14-------12-------------|
D|-------------------------------------------------------------------------|
A|-------------------------------------------------------------------------|
E|-------------------------------------------------------------------------|
[ Tab from: http://www.guitartabs.cc/tabs/a/a_perfect_circle/the_package_tab_ver_5.html ]
e|-14----------15----------------------------------------------------------|
B|--0-(x14)-----0----------------------------------------------------------|
G|-11----------------------------------------------------------------------|
D|-------------------------------------------------------------------------|
A|-------------------------------------------------------------------------|
E|-------------------------------------------------------------------------|

Guitar 2 (chorus)
e|-------------------------------------------------------------------------|
B|--15----15----14----14-----14------------17--------17--------17----------|
G|-----16----16----16----16-----16--16--16----16--16----16--16----16-------|
D|-------------------------------------------------------------------------|
A|-------------------------------------------------------------------------|
E|-------------------------------------------------------------------------|


e|-14----------------------------------------------------------------------|
B|----17--17---------------------------------------------------------------|
G|-----------16--16--------------------------------------------------------|
D|-------------------------------------------------------------------------|
A|-------------------------------------------------------------------------|
E|-------------------------------------------------------------------------|

Guitar 1 (interlude)
e|-------------------------------------------------------------------------|
B|-------------------------------------------------------------------------|
G|-------------------------------------------------------------------------|
D|--------2-2-2-2-2-2-2-2-2-5-5-5-5-5-5-5-5-5-5-5-5-5-5/9-9-9-9-9-9-9-9-9--|
A|--------x-x-x-x-x-x-x-x-x-x-x-x-x-x-x-x-x-x-x-x-x-x-x/x-x-x-x-x-x-x-x-x--|
E|--0-0-0-0-0-0-0-0-0-0-0-0-3-3-3-3-3-3-3-3-3-3-3-3-3-3/7-7-7-7-7-7-7-7-7--|

e|-------------------------------------------------------------------------|
B|----------------------------------10-10-10-10-10-10-10-------------------|
G|-----------------------------------x--x--x--x--x--x--x-------------------|
D|-9-9-9-9-9-9-9\7-7-7-7-7-7-7-7-7---8--8--8--8--8--8--8-------------------|
A|-x-x-x-x-x-x-x\x-x-x-x-x-x-x-x-x-----------------------------------------|
E|-7-7-7-7-7-7-7\5-5-5-5-5-5-5-5-5-----------------------------------------|

Guitar 2 (interlude)
e|-------------------------------------------------------------------------|
B|-------------------------------------------------------------------------|
G|-------------------------------------------------------------------------|
D|-------------------------------------------------------------------------|
A|-16-16-16-16-16/14-14-14-14-14-14/17-17-17-17-17-17-17-17-17-17/19-19-16-|
E|-------------------------------------------------------------------------|

e|-------------------------------------------------------------------------|
B|-------------------------------------------------------------------------|
G|-------------------------------------------------------------------------|
D|-------------------------------------------------------------------------|
A|-16-16-16-16-16\14-14-14-14-14-14\9-9-9-9-9-9-9-9-9b-9\------------------|
E|-------------------------------------------------------------------------|

Guitar 1 (verse)
e|-------------------------------------------------------------------------|
B|-------------------------------------------------------------------------|
G|-------------------------------------------------------------------------|
D|-------------------------------------------------------------------------|
A|-16-16-16-16-16/14-14-14-14-14-14/17-17-17-17-17-17-17-17-17-17/19-19-16-|
E|-------------------------------------------------------------------------|

e|-------------------------------------------------------------------------|
B|-------------------------------------------------------------------------|
G|-------------------------------------------------------------------------|
D|-------------------------------------------------------------------------|
A|-16-16-16-16-16\14-14-14-14-14-14\9-9-9-9-9-9-9-9-9b-9\------------------|
E|-------------------------------------------------------------------------|

Guitar 2 (verse)
e|-15-------14-------17----------------------------------------------------|
B|--x-(x16)--x-(x16)--x-(x16)----------------------------------------------|
G|-12-------11-------14----------------------------------------------------|
D|-------------------------------------------------------------------------|
A|-------------------------------------------------------------------------|
E|-------------------------------------------------------------------------|

Guitar 1 (chorus)
e|-------------------------------------------------------------------------|
B|--15----15----14----14-----14------------17--------17--------17----------|
G|-----16----16----16----16-----16--16--16----16--16----16--16----16-------|
D|-------------------------------------------------------------------------|
A|-------------------------------------------------------------------------|
E|-------------------------------------------------------------------------|


e|-14----------------------------------------------------------------------|
B|----17--17---------------------------------------------------------------|
G|-----------16--16--------------------------------------------------------|
D|-------------------------------------------------------------------------|
A|-------------------------------------------------------------------------|
E|-------------------------------------------------------------------------|


Guitar 2 (chorus)
e|-------------------------------------------------------------------------|
B|-------------------------------------------------------------------------|
G|-12-------11-------14-------12-------------------------------------------|
D|--x-(x15)--x-(x15)--x-(x15)--x-(x15)-------------------------------------|
A|-10--------9-------12-------10-------------------------------------------|
E|-------------------------------------------------------------------------|


Guitar 1 (interlude part 2)
e|-------------------------------------------------------------------------|
B|-------------------------------------------------------------------------|
G|-------------------------------------------------------------------------|
D|-------------------------------------------------------------------------|
A|-3-3-3-2------12\11/14b---3-3-3-2-------12\11\7b---3-3-3-2-------12\11---|
E|-1-1-1-0--0-0-------------1-1-1-0--0-0-------------1-1-1-0--0-0----------|

e|-------------------------------------------------------------------------|
B|-------------------------------------------------------------------------|
G|----13-14-13-------------------------------------------------------------|
D|--------------------------------------------------------------14-13-14-13|
A|-14----------------3-3-3-2------11\7--7b---3-3-3-2------12\11----------12|
E|-------------15\---1-1-1-0--0-0------------1-1-1-0--0-0------------------|

e|-------------------------------------------------------------------------|
B|-------------------------------------------------------------------------|
G|-------------------------------------------------------------------------|
D|---------------------14-16-------9-12\----------------7-9\---------------|
A|-3-3-3-2------12\11--------------7-10\-2--2-x-5-------5-7\-2--2-x-5------|
E|-1-1-1-0--0-0--------------------------0--0-x-3-0-0-0------0--0-x-3-0-0-0|

Guitar 2 (chorus)
e|-------------------------------------------------------------------------|
B|-------------------------------------------------------------------------|
G|-12-------11-------14-------12-------------------------------------------|
D|--x-(x15)--x-(x15)--x-(x15)--x-(x15)-------------------------------------|
A|-10--------9-------12-------10-------------------------------------------|
E|-------------------------------------------------------------------------|



Well those are all the differnt parts to the song. Just put it all together.
Its a really good song, one of my favorites. Enjoy.
Comments