A Perfect Circle - The Package Chords & Tabs

 

The Package Chords & Tabs

A Perfect Circle Chords & Tabs

Version: 4 Type: Tab 0 ratings
1 star 2 stars 3 stars 4 stars 5 stars
comments

The Package Tab

   
Band- A Perfect Circle
Song- The Package

Gtr I (C# F# B E G# C#) - 'Gtr1'
Gtr II (C# F# B E G# C#) - 'Gtr2'
Gtr III (C# F# B E G# C#) - 'Gtr3'
Gtr IV (C# F# B E G# C#) - 'Gtr4'

 Intro
  Half time feel Q=124
                 N.C.
 4/4
  Gtr I
  H    Q  E  E    E  E  E  E  +E   E Q     E E +E   E Q   E  E
|--------------|-10-10----10-(10)----9--|----9-(9)----9--------|
|-----------12-|-------12---------12----|-12-------12----12-12-|
|--------------|------------------------|----------------------|
|--------------|------------------------|----------------------|
|--------------|------------------------|----------------------|
|--------------|------------------------|----------------------|


   E  E  +E   E  E  E  +E   E    E  E  E  E  +E   E  E  E
|----12-(12)-------12-(12)----|----12----14-(14)-12--------|
|-12---------12-12---------12-|-12----12------------12-12--|
|-----------------------------|----------------------------|
|-----------------------------|----------------------------|
|-----------------------------|----------------------------|
|-----------------------------|----------------------------|


   Q   E  E  +E   E Q     E E +E   E Q   E  E
|-10-----10-(10)----9--|----9-(9)----9--------|
|-----12---------12----|-12-------12----12-12-|
|----------------------|----------------------|
|----------------------|----------------------|
|----------------------|----------------------|
|----------------------|----------------------|


   E  E  +E   E  E  E  +E   E    E  E  E  E  +E   E  E  E
|----12-(12)-------12-(12)----|----12----12-(12)----12-----|
|-12---------12-12---------12-|-12----12---------12----12--|
|-----------------------------|----------------------------|
|-----------------------------|----------------------------|
|-----------------------------|----------------------------|
|-----------------------------|----------------------------|


  Gtr I
   Q   E  E  +E   E Q      E  E +E   E Q   E  E
|-10-----10-(10)----9--|------9-(9)----9--------|
|-----12---------12----|--12--------12----12-12-|
|----------------------|------------------------|
|----------------------|------------------------|
|----------------------|------------------------|
|----------------------|------------------------|
|
| Gtr II
|  W                      +W
|-14-------------------|-(14)-------------------|
|---------0--(0)--0-0--|--(0)-------------------|
|----------------------|------------------------|
|----------------------|------------------------|
|----------------------|------------------------|
|----------------------|------------------------|
   Q   E  E  +E   E Q     +W


   E  E  +E   E  E   E  +E   E     E   E  E  E  +E   E  E  E
|----12-(12)--------12-(12)----|------12----14-(14)-12--------|
|-12---------12-12----------12-|--12-----12------------12-12--|
|------------------------------|------------------------------|
|------------------------------|------------------------------|
|------------------------------|------------------------------|
|------------------------------|------------------------------|
|
|  W                              +W
|-17---------------------------|-(17)-------------------------|
|-------------0-(0)--0---0-----|--(0)-------------------------|
|------------------------------|------------------------------|
|------------------------------|------------------------------|
|------------------------------|------------------------------|
|------------------------------|------------------------------|
   Q      E   E +E   E   Q        +W


   Q   E  E  +E   E Q      E  E +E   E Q   Q     W                  +W
|-10-----10-(10)----9--|------9-(9)----9------|------------------|---------||
|-----12---------12----|--12--------12----12--|-12---------------|-(12)----||
|----------------------|----------------------|------------------|---------||
|----------------------|----------------------|------------------|---------||
|----------------------|----------------------|------------------|---------||
|----------------------|----------------------|------------------|---------||
|
|  W                      +W                     W                  +W
|-15-------------------|-(15)-----------------|-14---------------|-(14)----||
|---------0--(0)--0-0--|--(0)-----------------|-------0-(0)-0-0--|--(0)----||
|----------------------|----------------------|------------------|---------||
|----------------------|----------------------|------------------|---------||
|----------------------|----------------------|------------------|---------||
|----------------------|----------------------|------------------|---------||
   Q   E  E  +E   E Q     +W                     Q  E E +E  E Q     +W


 Bass and Drums
  E5  G5             E5                G5  E5G5
   Q   E   E  +E   E  E E    +E  E +E  E E E E  E
|-------------------------|-----------------------|
|-------------------------|-----------------------|
|---------11-(11)-11-11s9-|--(9)-9-(9)-9-9-9-9s12-|
|-------------------------|-----------------------|
|-------------------------|-----------------------|
|-------------------------|-----------------------|
|
|  Q   H.                    +W
|-17--17------------------|-(17)------------------|
|----------0--(0)--0--0---|-----------------------|
|-------------------------|-----------------------|
|-------------------------|-----------------------|
|-------------------------|-----------------------|
|-------------------------|-----------------------|
   Q   E   E  +E   E  Q


  D5  E5                                 G5    E5 G5
   Q   +E   E  +E   E  Q     +E   E  +E   E  E  E  E  E
|-------------------------|------------------------------|
|-------------------------|------------------------------|
|-12--(12)-12-(12)-12-12--|-(12)-12-(12)-12-12s14-14s11--|
|-------------------------|------------------------------|
|-------------------------|------------------------------|
|-------------------------|------------------------------|
|
|  Q    H.                   +W
|-15---15-----------------|-(15)-------------------------|
|-----------0--(0)--0--0--|------------------------------|
|-------------------------|------------------------------|
|-------------------------|------------------------------|
|-------------------------|------------------------------|
|-------------------------|------------------------------|
   Q    E   E  +E   E  Q


  E5  G5             E5              G5    E5G5
   Q   E   E  +E   E  E E    +E  E E E +E  E Q
|-------------------------|---------------------|
|-------------------------|---------------------|
|-11--11--11-(11)-11-11s9-|--(9)-9-9-9-(9)-9-9S=|
|-------------------------|---------------------|
|-------------------------|---------------------|
|-------------------------|---------------------|
|
|  Q   H.                    +W
|-14--14------------------|-(14)----------------|
|----------0--(0)--0--0---|---------------------|
|-------------------------|---------------------|
|-------------------------|---------------------|
|-------------------------|---------------------|
|-------------------------|---------------------|
   Q   E   E  +E   E  Q


  E5  D5          E5                 G5  E5G5
   Q   E  E +E  E Q          +E  E E E E E Q
|-------------------------|---------------------|
|------5--------0---------|---------------------|
|--4------4-(4)---4b4.5===|==(4)-4-4-4-4-4r4S===|
|-------------------------|---------------------|
|-------------------------|---------------------|
|-------------------------|---------------------|
|
|  Q   H.                    +W
|-17--17------------------|-(17)----------------|
|---------0-(0)-0-0-------|---------------------|
|-------------------------|---------------------|
|-------------------------|---------------------|
|-------------------------|---------------------|
|-------------------------|---------------------|
   Q   E  E +E  E Q


  E5  G5            E5               G5    E5G5
   Q   E  E  +E   E  E  E    +E  E E E +E  E E  E
|-------------------------|-----------------------|
|-------------------------|-----------------------|
|-11--11-11-(11)-11-11s=9-|--(9)-9-9-9-(9)-9-9s12-|
|-------------------------|-----------------------|
|-------------------------|-----------------------|
|-------------------------|-----------------------|
|
|  Q   H             Q        W
|-15--15------------15----|-(15)------------------|
|---------0--(0)--0-(0)---|--(0)------------------|
|-------------------------|-----------------------|
|-------------------------|-----------------------|
|-------------------------|-----------------------|
|-------------------------|-----------------------|
   Q   E  E  +E   E +Q       +W


  D5  E5                                  G5    E5 G5
   Q   E  E  +E   E  E   E    +E   E  +E   E  E  E  E  E
|--------------------------|------------------------------|
|--------------------------|------------------------------|
|-12--12-12-(12)-12-12--12-|-(12)-12-(12)-12-12s14-14s11--|
|--------------------------|------------------------------|
|--------------------------|------------------------------|
|--------------------------|------------------------------|
|
|  Q   H             Q         W
|-14--14------------14-----|-(14)-------------------------|
|---------0--(0)--0-(0)----|--(0)-------------------------|
|--------------------------|------------------------------|
|--------------------------|------------------------------|
|--------------------------|------------------------------|
|--------------------------|------------------------------|
   Q   E  E  +E   E +Q        +W


  E5  G5            E5               G5    E5G5
   Q   E  E  +E   E  E  E    +E  E E E +E  E E E
|-------------------------|----------------------|
|-------------------------|----------------------|
|-11--11-11-(11)-11-11s=9-|--(9)-9-9-9-(9)-9-9s4-|
|-------------------------|----------------------|
|-------------------------|----------------------|
|-------------------------|----------------------|
|
|  Q   H             Q        W
|-17--17------------17----|-(17)-----------------|
|---------0--(0)--0-(0)---|--(0)-----------------|
|-------------------------|----------------------|
|-------------------------|----------------------|
|-------------------------|----------------------|
|-------------------------|----------------------|
   Q   E  E  +E   E +Q       +W


  E5  D5         E5                      G5  E5G5
   Q   E E +E  E  E  E         +E  E +E  E E E Q
|---------------------------|-----------------------|
|------5-------0------------|-----------------------|
|--4-----4-(4)----4--4b4.5==|==(4)-4-(4)-4-4-4r4S===|
|---------------------------|-----------------------|
|---------------------------|-----------------------|
|---------------------------|-----------------------|
|
|  Q   H          Q             W
|-15--15---------15---------|-(15)------------------|
|--------0-(0)-0-(0)--------|--(0)------------------|
|---------------------------|-----------------------|
|---------------------------|-----------------------|
|---------------------------|-----------------------|
|---------------------------|-----------------------|
   Q   E E +E  E +Q            +W


 Verse 1
  E5  G5            E5               G5    E5G5
   Q   E  E  +E   E  E  E    +E  E E E +E  E E  E
|-------------------------|-----------------------|
|-------------------------|-----------------------|
|-11--11-11-(11)-11-11s=9-|--(9)-9-9-9-(9)-9-9s12-|
|-------------------------|-----------------------|
|-------------------------|-----------------------|
|-------------------------|-----------------------|
|
|  Q   H             Q        W
|-14--14------------14----|-(14)------------------|
|---------0--(0)--0-(0)---|--(0)------------------|
|-------------------------|-----------------------|
|-------------------------|-----------------------|
|-------------------------|-----------------------|
|-------------------------|-----------------------|
   Q   E  E  +E   E +Q       +W


  D5  E5                                  G5    E5 G5
   Q   E  E  +E   E  E   E    +E   E  +E   E  E  E  E  E
|--------------------------|------------------------------|
|--------------------------|------------------------------|
|-12--12-12-(12)-12-12--12-|-(12)-12-(12)-12-12s14-14s11--|
|--------------------------|------------------------------|
|--------------------------|------------------------------|
|--------------------------|------------------------------|
|
|  Q   H             Q         W
|-17--17------------17-----|-(17)-------------------------|
|---------0--(0)--0-(0)----|--(0)-------------------------|
|--------------------------|------------------------------|
|--------------------------|------------------------------|
|--------------------------|------------------------------|
|--------------------------|------------------------------|
   Q   E  E  +E   E +Q        +W


  E5  G5            E5               G5    E5G5
   Q   E  E  +E   E  E  E    +E  E E E +E  E E E
|-------------------------|----------------------|
|-------------------------|----------------------|
|-11--11-11-(11)-11-11s=9-|--(9)-9-9-9-(9)-9-9s4-|
|-------------------------|----------------------|
|-------------------------|----------------------|
|-------------------------|----------------------|
|
|  Q   H             Q        W
|-15--15------------15----|-(15)-----------------|
|---------0--(0)--0-(0)---|--(0)-----------------|
|-------------------------|----------------------|
|-------------------------|----------------------|
|-------------------------|----------------------|
|-------------------------|----------------------|
   Q   E  E  +E   E +Q       +W


  E5  D5         E5                      G5  E5G5
   Q   E E +E  E  E  E         +E  E +E  E E E Q
|---------------------------|-----------------------|
|------5-------0------------|-----------------------|
|--4-----4-(4)----4--4b4.5==|==(4)-4-(4)-4-4-4r4S===|
|---------------------------|-----------------------|
|---------------------------|-----------------------|
|---------------------------|-----------------------|
|
|  Q   H          Q             W
|-14--14---------14---------|-(14)------------------|
|--------0-(0)-0-(0)--------|--(0)------------------|
|---------------------------|-----------------------|
|---------------------------|-----------------------|
|---------------------------|-----------------------|
|---------------------------|-----------------------|
   Q   E E +E  E +Q            +W


  E5  G5            E5               G5    E5G5
   Q   E  E  +E   E  E  E    +E  E E E +E  E E  E
|-------------------------|-----------------------|
|-------------------------|-----------------------|
|-11--11-11-(11)-11-11s=9-|--(9)-9-9-9-(9)-9-9s12-|
|-------------------------|-----------------------|
|-------------------------|-----------------------|
|-------------------------|-----------------------|
|
|  Q   H             Q        W
|-17--17------------17----|-(17)------------------|
|---------0--(0)--0-(0)---|--(0)------------------|
|-------------------------|-----------------------|
|-------------------------|-----------------------|
|-------------------------|-----------------------|
|-------------------------|-----------------------|
   Q   E  E  +E   E +Q       +W


  D5  E5                                  G5    E5 G5
   Q   E  E  +E   E  E   E    +E   E  +E   E  E  E  E  E
|--------------------------|------------------------------|
|--------------------------|------------------------------|
|-12--12-12-(12)-12-12--12-|-(12)-12-(12)-12-12s14-14s11--|
|--------------------------|------------------------------|
|--------------------------|------------------------------|
|--------------------------|------------------------------|
|
|  Q   H             Q         W
|-15--15------------15-----|-(15)-------------------------|
|---------0--(0)--0-(0)----|--(0)-------------------------|
|--------------------------|------------------------------|
|--------------------------|------------------------------|
|--------------------------|------------------------------|
|--------------------------|------------------------------|
   Q   E  E  +E   E +Q        +W


  E5  G5            E5               G5    E5G5
   Q   E  E  +E   E  E  E    +E  E E E +E  E E E
|-------------------------|----------------------|
|-------------------------|----------------------|
|-11--11-11-(11)-11-11s=9-|--(9)-9-9-9-(9)-9-9s4-|
|-------------------------|----------------------|
|-------------------------|----------------------|
|-------------------------|----------------------|
|
|  Q   H             Q        W
|-14--14------------14----|-(14)-----------------|
|---------0--(0)--0-(0)---|--(0)-----------------|
|-------------------------|----------------------|
|-------------------------|----------------------|
|-------------------------|----------------------|
|-------------------------|----------------------|
   Q   E  E  +E   E +Q       +W


  E5  D5         E5                      G5  E5G5
   Q   E E +E  E  E  E         +E  E +E  E E E Q
|---------------------------|----------------------|
|------5-------0------------|----------------------|
|--4-----4-(4)----4--4b4.5==|==(4)-4-(4)-4-4-4r4---|
|---------------------------|----------------------|
|---------------------------|----------------------|
|---------------------------|----------------------|
|
|  Q   H          Q             W
|-17--17---------17---------|-(17)-----------------|
|--------0-(0)-0-(0)--------|--(0)-----------------|
|---------------------------|----------------------|
|---------------------------|----------------------|
|---------------------------|----------------------|
|---------------------------|----------------------|
   Q   E E +E  E +Q            +W


  E5    G5              E5                   G5    E5 G5
   Q     +E   E  +E   E  Q       +E   E  +E   E  E  E  E  E
|-----------------------------|-----------------------------|
|-----------------------------|-----------------------------|
|-11----(11)-11-(11)-11-11----|-(11)-11-(11)-11-11-11-11s12-|
|-----------------------------|-----------------------------|
|-----------------------------|-----------------------------|
|-----------------------------|-----------------------------|
|
|  E  E   E   E   E   E  E  E     E   E   E   E  E  E  E  E
|-14-14--14--14--14--14-14-14-|--14--14--14--14-14-14-14-14-|
|-----------------------------|-----------------------------|
|-11-11--11--11--11--11-11-11-|--11--11--11--11-11-11-11-11-|
|-----------------------------|-----------------------------|
|-----------------------------|-----------------------------|
|-----------------------------|-----------------------------|


  D5    E5                                   G5    E5 G5
   Q     +E   E  +E   E  Q       +E   E  +E   E  E  E  E  E
|-----------------------------|------------------------------|
|-----------------------------|------------------------------|
|-12----(12)-12-(12)-12-12----|-(12)-12-(12)-12-12-14-14s11--|
|-----------------------------|------------------------------|
|-----------------------------|------------------------------|
|-----------------------------|------------------------------|
|
|  E  E   E   E   E   E  E  E     E   E   E   E  E  E  E  E
|-15-15--15--15--15--15-15-15-|--15--15--15--15-15-15-15-15--|
|-----------------------------|------------------------------|
|-12-12--12--12--12--12-12-12-|--12--12--12--12-12-12-12-12--|
|-----------------------------|------------------------------|
|-----------------------------|------------------------------|
|-----------------------------|------------------------------|


  E5    G5            E5                G5     E5 G5
   Q     E  E  +E   E  E  E   +E   E  E  E +E   E  E  E
|---------------------------|---------------------------|
|---------------------------|---------------------------|
|-11----11-11-(11)-11-11s=9-|-(9)--9--9--9-(9)--9--9s=4-|
|---------------------------|---------------------------|
|---------------------------|---------------------------|
|---------------------------|---------------------------|
|
|  E  E  E  E   E   E  E  E    E   E  E  E  E   E  E  E
|-14-14-14-14--14--14-14-14-|-14--14-14-14-14--14-14-14-|
|---------------------------|---------------------------|
|-11-11-11-11--11--11-11-11-|-11--11-11-11-11--11-11-11-|
|---------------------------|---------------------------|
|---------------------------|---------------------------|
|---------------------------|---------------------------|


  E5    D5           E5                G5     E5 G5
   Q     E  E +E   E  E  E   +E   E  E  E +E   E  Q
|--------------------------|----------------------------||
|--------0-----------------|----------------------------||
|--4--------4-(4)--4--4--4-|-(4)--4--4--4-(4)--4--4-----||
|--------------------------|----------------------------||
|--------------------------|----------------------------||
|--------------------------|----------------------------||
|
|  E  E  E  E  E   E  E  E    E   E  E  E  E   E  E  E
|-14-14-14-14-14--14-14-14-|-14--14-14-14-14--14-14-14--||
|--------------------------|----------------------------||
|-11-11-11-11-11--11-11-11-|-11--11-11-11-11--11-11-11--||
|--------------------------|----------------------------||
|--------------------------|----------------------------||
|--------------------------|----------------------------||


 Verse 2
  E5   G5            E5                 G5    E5G5
   Q    E  E  +E   E  E  E    +E  E  E  E +E  E E  E
|--------------------------|-------------------------|
|--------------------------|-------------------------|
|-11---11-11-(11)-11-11s=9-|--(9)-9--9--9-(9)-9-9s12-|
|--------------------------|-------------------------|
|--------------------------|-------------------------|
|--------------------------|-------------------------|
|
|  H.                 Q       +H           H
|-15-----------------15----|-(15)---------15---------|
|----------0--(0)--0-(0)---|--(0)-0-(0)-0-(0)--------|
|--------------------------|-------------------------|
|--------------------------|-------------------------|
|--------------------------|-------------------------|
|--------------------------|-------------------------|
   Q    E  E  +E   E +Q       +E  E +E  E +H


  D5   E5                                  G5     E5 G5
   Q    E  E  +E   E  E   E    +E   E  +E   E  E   E  E  E
|---------------------------|-------------------------------|
|---------------------------|-------------------------------|
|-12---12-12-(12)-12-12--12-|-(12)-12-(12)-12-12s=14-14s11--|
|---------------------------|-------------------------------|
|---------------------------|-------------------------------|
|---------------------------|-------------------------------|
|
|  H.                 Q        +H              H
|-14-----------------14-----|-(14)------------14------------|
|----------0--(0)--0-(0)----|--(0)--0--(0)--0-(0)-----------|
|---------------------------|-------------------------------|
|---------------------------|-------------------------------|
|---------------------------|-------------------------------|
|---------------------------|-------------------------------|
   Q    E  E  +E   E +Q        +E   E  +E   E +H


  E5   G5            E5             G5    E5    G5
   Q    E  E  +E   E  E  E    +E  E  E  E +E  E E E
|--------------------------|------------------------|
|--------------------------|------------------------|
|-11---11-11-(11)-11-11s=9-|--(9)-9--9--9-(9)-9-9s4-|
|--------------------------|------------------------|
|--------------------------|------------------------|
|--------------------------|------------------------|
|
|  H.                 Q       +H           H
|-17-----------------17----|-(17)---------17--------|
|----------0--(0)--0-(0)---|--(0)-0-(0)-0-(0)-------|
|--------------------------|------------------------|
|--------------------------|------------------------|
|--------------------------|------------------------|
|--------------------------|------------------------|
   Q    E  E  +E   E +Q       +E  E +E  E +H


  E5   D5        E5                      G5    E5G5
   Q   E E +E  E  E  E         +E  E +E  E  E  E Q
|---------------------------|-------------------------|
|------5-------0------------|-------------------------|
|--4-----4-(4)----4--4b4.5==|==(4)-4-(4)-4--4--4r4S===|
|---------------------------|-------------------------|
|---------------------------|-------------------------|
|---------------------------|-------------------------|
|
|  H.             Q            +H           H
|-15-------------15---------|-(15)---------15---------|
|--------0-(0)-0-(0)--------|--(0)-0-(0)-0-(0)--------|
|---------------------------|-------------------------|
|---------------------------|-------------------------|
|---------------------------|-------------------------|
|---------------------------|-------------------------|
   Q   E E +E  E +Q            +E  E +E  E +H


  E5   G5            E5                 G5    E5G5
   Q    E  E  +E   E  E  E    +E  E  E  E +E  E E  E
|--------------------------|-------------------------|
|--------------------------|-------------------------|
|-11---11-11-(11)-11-11s=9-|--(9)-9--9--9-(9)-9-9s12-|
|--------------------------|-------------------------|
|--------------------------|-------------------------|
|--------------------------|-------------------------|
|
|  H.                 Q       +H           H
|-14-----------------14----|-(14)---------14---------|
|----------0--(0)--0-(0)---|--(0)-0-(0)-0-(0)--------|
|--------------------------|-------------------------|
|--------------------------|-------------------------|
|--------------------------|-------------------------|
|--------------------------|-------------------------|
   Q    E  E  +E   E +Q       +E  E +E  E +H


  D5   E5                                  G5     E5 G5
   Q    E  E  +E   E  E   E    +E   E  +E   E  E   E  E  E
|---------------------------|-------------------------------|
|---------------------------|-------------------------------|
|-12---12-12-(12)-12-12--12-|-(12)-12-(12)-12-12s=14-14s11--|
|---------------------------|-------------------------------|
|---------------------------|-------------------------------|
|---------------------------|-------------------------------|
|
|  H.                 Q        +H              H
|-17-----------------17-----|-(17)------------17------------|
|----------0--(0)--0-(0)----|--(0)--0--(0)--0-(0)-----------|
|---------------------------|-------------------------------|
|---------------------------|-------------------------------|
|---------------------------|-------------------------------|
|---------------------------|-------------------------------|
   Q    E  E  +E   E +Q        +E   E  +E   E +H


  E5   G5            E5                 G5    E5G5
   Q    E  E  +E   E  E  E    +E  E  E  E +E  E E E
|--------------------------|------------------------|
|--------------------------|------------------------|
|-11---11-11-(11)-11-11s=9-|--(9)-9--9--9-(9)-9-9s4-|
|--------------------------|------------------------|
|--------------------------|------------------------|
|--------------------------|------------------------|
|
|  H.                 Q       +H           H
|-15-----------------15----|-(15)---------15--------|
|----------0--(0)--0-(0)---|--(0)-0-(0)-0-(0)-------|
|--------------------------|------------------------|
|--------------------------|------------------------|
|--------------------------|------------------------|
|--------------------------|------------------------|
   Q    E  E  +E   E +Q       +E  E +E  E +H


  E5   D5        E5                      G5    E5G5
   Q   E E +E  E  E  E         +E  E +E  E  E  E E  E
|---------------------------|---------------------------||
|------5-------0------------|----------------------(0)--||
|--4-----4-(4)----4--4b4.5==|==(4)-4-(4)-4--4--4r4------||
|---------------------------|---------------------------||
|---------------------------|---------------------------||
|---------------------------|---------------------------||
|
|  H.             Q            +H           H
|-14-------------14---------|-(14)---------14-----------||
|--------0-(0)-0-(0)--------|--(0)-0-(0)-0-(0)----------||
|---------------------------|---------------------------||
|---------------------------|---------------------------||
|---------------------------|---------------------------||
|---------------------------|---------------------------||
   Q   E E +E  E +Q            +E  E +E  E +H


 Chorus
  E5  G5            E5                   G5    E5 G5
   Q   E  E  +E   E  Q        E   E  +E   E  Q     E  E
|-10-----10-(10)-----9----|-------9--(9)-----9----------|
|-----12---------12-------|--12----------12-------12-12-|
|-------------------------|-----------------------------|
|-------------------------|-----------------------------|
|-------------------------|-----------------------------|
|-------------------------|-----------------------------|
|
|  Q   E  E  +E   E  E  E    +E   E  +E   E  E  E  E  E
|-15--15-15-(15)-15-15-15-|-(15)-15-(15)-15-15-15-15-15-|
|--0---0--0--(0)--0--0--0-|--(0)--0--(0)--0--0--0--0--0-|
|-------------------------|-----------------------------|
|-------------------------|-----------------------------|
|-------------------------|-----------------------------|
|-------------------------|-----------------------------|


  D5    E5                                     G5      E5 G5
   E  E  +E   E   E   E  +E   E     E   E   E   E  +E   E  E  E
|----12-(12)---------12-(12)----|------12------14-(14)-12--------|
|-12---------12--12----------12-|--12------12-------------12-12--|
|-------------------------------|--------------------------------|
|-------------------------------|--------------------------------|
|-------------------------------|--------------------------------|
|-------------------------------|--------------------------------|
|
|  Q      E   E  +E   E   E   E    +E   E  +E   E   E   E  E  E
|-14-----14--14-(14)-14--14--14-|-(14)-14-(14)-14--14--14-14-14--|
|--0------0---0--(0)--0---0---0-|--(0)--0--(0)--0---0---0--0--0--|
|-------------------------------|--------------------------------|
|-------------------------------|--------------------------------|
|-------------------------------|--------------------------------|
|-------------------------------|--------------------------------|


  E5  G5            E5                   G5    E5 G5
   Q   E  E  +E   E  Q        E   E  +E   E  Q     E  E
|-10-----10-(10)-----9----|-------9--(9)-----9----------|
|-----12---------12-------|--12----------12-------12-12-|
|-------------------------|-----------------------------|
|-------------------------|-----------------------------|
|-------------------------|-----------------------------|
|-------------------------|-----------------------------|
|
|  Q   E  E  +E   E  E  E    +E   E  +E   E  E  E  E  E
|-17--17-17-(17)-17-17-17-|-(17)-17-(17)-17-17-17-17-17-|
|--0---0--0--(0)--0--0--0-|--(0)--0--(0)--0--0--0--0--0-|
|-------------------------|-----------------------------|
|-------------------------|-----------------------------|
|-------------------------|-----------------------------|
|-------------------------|-----------------------------|


  E5    D5              E5                     G5      E5 G5
   E  E  +E   E   E   E  +E   E     E   E   E   E  +E   E  E  E
|----12-(12)---------12-(12)----|------12------12-(12)----12-----|
|-12---------12--12----------12-|--12------12----------12----12--|
|-------------------------------|--------------------------------|
|-------------------------------|--------------------------------|
|-------------------------------|--------------------------------|
|-------------------------------|--------------------------------|
|
|  Q      E   E  +E   E   E   E    +E   E  +E   E   E   E  E  E
|-15-----15--15-(15)-15--15--15-|-(15)-15-(15)-15--15--15-15-15--|
|--0------0---0--(0)--0---0---0-|--(0)--0--(0)--0---0---0--0--0--|
|-------------------------------|--------------------------------|
|-------------------------------|--------------------------------|
|-------------------------------|--------------------------------|
|-------------------------------|--------------------------------|


  E5  G5            E5                   G5    E5 G5
   Q   E  E  +E   E  Q        E   E  +E   E  Q     E  E
|-10-----10-(10)-----9----|-------9--(9)-----9----------|
|-----12---------12-------|--12----------12-------12-12-|
|-------------------------|-----------------------------|
|-------------------------|-----------------------------|
|-------------------------|-----------------------------|
|-------------------------|-----------------------------|
|
|  Q   E  E  +E   E  E  E    +E   E  +E   E  E  E  E  E
|-14--14-14-(14)-14-14-14-|-(14)-14-(14)-14-14-14-14-14-|
|--0---0--0--(0)--0--0--0-|--(0)--0--(0)--0--0--0--0--0-|
|-------------------------|-----------------------------|
|-------------------------|-----------------------------|
|-------------------------|-----------------------------|
|-------------------------|-----------------------------|


  D5    E5                                     G5      E5 G5
   E  E  +E   E   E   E  +E   E     E   E   E   E  +E   E  E  E
|----12-(12)---------12-(12)----|------12------14-(14)-12--------|
|-12---------12--12----------12-|--12------12-------------12-12--|
|-------------------------------|--------------------------------|
|-------------------------------|--------------------------------|
|-------------------------------|--------------------------------|
|-------------------------------|--------------------------------|
|
|  Q      E   E  +E   E   E   E    +E   E  +E   E   E   E  E  E
|-17-----17--17-(17)-17--17--17-|-(17)-17-(17)-17--17--17-17-17--|
|--0------0---0--(0)--0---0---0-|--(0)--0--(0)--0---0---0--0--0--|
|-------------------------------|--------------------------------|
|-------------------------------|--------------------------------|
|-------------------------------|--------------------------------|
|-------------------------------|--------------------------------|


  E5  G5            E5                   G5    E5 G5
   Q   E  E  +E   E  Q        E   E  +E   E  Q     E  E
|-10-----10-(10)-----9----|-------9--(9)-----9----------|
|-----12---------12-------|--12----------12-------12-12-|
|-------------------------|-----------------------------|
|-------------------------|-----------------------------|
|-------------------------|-----------------------------|
|-------------------------|-----------------------------|
|
|  Q   E  E  +E   E  E  E    +E   E  +E   E  E  E  E  E
|-15--15-15-(15)-15-15-15-|-(15)-15-(15)-15-15-15-15-15-|
|--0---0--0--(0)--0--0--0-|--(0)--0--(0)--0--0--0--0--0-|
|-------------------------|-----------------------------|
|-------------------------|-----------------------------|
|-------------------------|-----------------------------|
|-------------------------|-----------------------------|


  E5    D5              E5                     G5      E5 G5
   E  E  +E   E   E   E  +E   E     E   E   E   E  +E   E  Q
|----12-(12)---------12-(12)----|------12------12-(12)-----------||
|-12---------12--12----------12-|--12------12----------12-12-----||
|-------------------------------|--------------------------------||
|-------------------------------|--------------------------------||
|-------------------------------|--------------------------------||
|-------------------------------|--------------------------------||
|
|  Q      E   E  +E   E   E   E    +E   E  +E   E   E   E  E  E
|-14-----14--14-(14)-14--14--14-|-(14)-14-(14)-14--14--14-14-14--||
|--0------0---0--(0)--0---0---0-|--(0)--0--(0)--0---0---0--0--0--||
|-------------------------------|--------------------------------||
|-------------------------------|--------------------------------||
|-------------------------------|--------------------------------||
|-------------------------------|--------------------------------||


 Interlude
  E5  G5            E5             G5    E5G5
   Q   E  E  +E   E  E E   +E  E E E +E  E E  E
|------------------------|----------------------|
|------------------------|----------------------|
|-11--11-11-(11)-11-11s9-|-(9)-9-9-9-(9)-9-9s12-|
|------------------------|----------------------|
|------------------------|----------------------|
|------------------------|----------------------|
|
|  Q   E  E  +E   E  Q     +E  E E E +E  E E  E
|------------------------|----------------------|
|--0---------------------|----------------------|
|------------------------|----------------------|
|---------2--(2)--2--2---|-(2)-2-2-2-(2)-2-2s=5-|
|------------------------|----------------------|
|------------------------|----------------------|
   W


  D5  E5                                 G5    E5 G5
   Q   E  E  +E   E  E  E    +E   E  +E   E  E  E  E  E
|-------------------------|------------------------------|
|-------------------------|------------------------------|
|-12--12-12-(12)-12-12-12-|-(12)-12-(12)-12-12s14-14s11--|
|-------------------------|------------------------------|
|-------------------------|------------------------------|
|-------------------------|------------------------------|
|
|  Q   E  E  +E   E  E  E    +E   E  +E   E  E  E  Q
|-------------------------|------------------------------|
|-------------------------|------------------------------|
|-------------------------|------------------------------|
|--5---5--5--(5)--5--5--5-|--(5)--5--(5)--5--5s=7--7s====|
|-------------------------|------------------------------|
|-------------------------|------------------------------|


  E5  G5            E5               G5    E5G5
   Q   E  E  +E   E  E E   +E  E  E  E +E  E E E
|------------------------|-----------------------|
|------------------------|-----------------------|
|-11--11-11-(11)-11-11s9-|-(9)-9--9--9-(9)-9-9s4-|
|------------------------|-----------------------|
|------------------------|-----------------------|
|------------------------|-----------------------|
|
|  Q   E  E  +E   E  E E   +E  E +E  E  E  E Q
|------------------------|-----------------------|
|------------------------|-----------------------|
|------------------------|-----------------------|
|--9---9--9--(9)--9--9-9-|-(9)-9-(9)-9--9--9-9---|
|------------------------|-----------------------|
|------------------------|-----------------------|


  E5 D5        E5            G5    E5 G5
  Q  E E +E  E Q    E  E +E   E  E  E  Q
|-----------------|------------------------|
|----0-------0----|-0---------0-----0------|
|-4----4-(4)---4--|----4-(4)-----4-----4---|
|-----------------|------------------------|
|-----------------|------------------------|
|-----------------|------------------------|
|
| Q  E E +E  E Q    E  E  E   E  E  E  Q
|-----------------|------------------------|
|-----------------|------------------------|
|-----------------|---10-10--10-10-10-10---|
|-7--7-7-(7)-7-7--|----9--9---9--9--9--9---|
|-----------------|------------------------|
|-----------------|------------------------|


 Verse 3
  E5    G5            E5                G5     E5 G5
   Q     E  E  +E   E  E  E   +E   E  E  E +E   E  E  E
|---------------------------|---------------------------|
|---------------------------|---------------------------|
|-11----11-11-(11)-11-11s=9-|-(9)--9--9--9-(9)--9--9s12-|
|---------------------------|---------------------------|
|---------------------------|---------------------------|
|---------------------------|---------------------------|
|
|  E  E  E  E   E   E  E  E    E   E  E  E  E   E  E  E
|-15-15-15-15--15--15-15-15-|-15--15-15-15-15--15-15-15-|
|---------------------------|---------------------------|
|---------------------------|---------------------------|
|---------------------------|---------------------------|
|---------------------------|---------------------------|
|---------------------------|---------------------------|


  D5    E5                                 G5    E5 G5
   Q     E  E  +E   E  E  E    +E   E  +E   E  E  E  E  E
|---------------------------|------------------------------|
|---------------------------|------------------------------|
|-12----12-12-(12)-12-12-12-|-(12)-12-(12)-12-12s14-14s11--|
|---------------------------|------------------------------|
|---------------------------|------------------------------|
|---------------------------|------------------------------|
|
|  E  E  E  E   E   E  E  E     E   E   E   E  E  E  E  E
|-14-14-14-14--14--14-14-14-|--14--14--14--14-14-14-14-14--|
|---------------------------|------------------------------|
|---------------------------|------------------------------|
|---------------------------|------------------------------|
|---------------------------|------------------------------|
|---------------------------|------------------------------|


  E5    G5            E5                G5     E5 G5
   Q     E  E  +E   E  E  E   +E   E  E  E +E   E  E  E
|---------------------------|---------------------------|
|---------------------------|---------------------------|
|-11----11-11-(11)-11-11s=9-|-(9)--9--9--9-(9)--9--9s=4-|
|---------------------------|---------------------------|
|---------------------------|---------------------------|
|---------------------------|---------------------------|
|
|  E  E  E  E   E   E  E  E    E   E  E  E  E   E  E  E
|-17-17-17-17--17--17-17-17-|-17--17-17-17-17--17-17-17-|
|---------------------------|---------------------------|
|---------------------------|---------------------------|
|---------------------------|---------------------------|
|---------------------------|---------------------------|
|---------------------------|---------------------------|


  E5    D5           E5                      G5    E5 G5
   Q     E  E +E   E  E  E        +E   E +E   E  E  E  Q
|-------------------------------|----------------------------|
|--------5---------0------------|----------------------------|
|--4--------4-(4)-----4--4b4.5==|=(4)--4-(4)--4--4--4r=4S====|
|-------------------------------|----------------------------|
|-------------------------------|----------------------------|
|-------------------------------|----------------------------|
|
|  E  E  E  E  E   E  E  E         E   E  E   E  E  E  E  E
|-15-15-15-15-15--15-15-15------|-15--15-15--15-15-15-15-15--|
|-------------------------------|----------------------------|
|-------------------------------|----------------------------|
|-------------------------------|----------------------------|
|-------------------------------|----------------------------|
|-------------------------------|----------------------------|


  E5    G5            E5                G5     E5 G5
   Q     E  E  +E   E  E  E   +E   E  E  E +E   E  E  E
|---------------------------|---------------------------|
|---------------------------|---------------------------|
|-11----11-11-(11)-11-11s=9-|-(9)--9--9--9-(9)--9--9s12-|
|---------------------------|---------------------------|
|---------------------------|---------------------------|
|---------------------------|---------------------------|
|
|  E  E  E  E   E   E  E  E    E   E  E  E  E   E  E  E
|-14-14-14-14--14--14-14-14-|-14--14-14-14-14--14-14-14-|
|---------------------------|---------------------------|
|---------------------------|---------------------------|
|---------------------------|---------------------------|
|---------------------------|---------------------------|
|---------------------------|---------------------------|


  D5    E5                                 G5    E5 G5
   Q     E  E  +E   E  E  E    +E   E  +E   E  E  E  E  E
|---------------------------|------------------------------|
|---------------------------|------------------------------|
|-12----12-12-(12)-12-12-12-|-(12)-12-(12)-12-12s14-14s11--|
|---------------------------|------------------------------|
|---------------------------|------------------------------|
|---------------------------|------------------------------|
|
|  E  E  E  E   E   E  E  E     E   E   E   E  E  E  E  E
|-15-15-15-15--15--15-15-15-|--15--15--15--15-15-15-15-15--|
|---------------------------|------------------------------|
|---------------------------|------------------------------|
|---------------------------|------------------------------|
|---------------------------|------------------------------|
|---------------------------|------------------------------|


  E5    G5            E5                G5     E5 G5
   Q     E  E  +E   E  E  E   +E   E  E  E +E   E  E  E
|---------------------------|---------------------------|
|---------------------------|---------------------------|
|-11----11-11-(11)-11-11s=9-|-(9)--9--9--9-(9)--9--9s=4-|
|---------------------------|---------------------------|
|---------------------------|---------------------------|
|---------------------------|---------------------------|
|
|  E  E  E  E   E   E  E  E    E   E  E  E  E   E  E  E
|-14-14-14-14--14--14-14-14-|-14--14-14-14-14--14-14-14-|
|---------------------------|---------------------------|
|---------------------------|---------------------------|
|---------------------------|---------------------------|
|---------------------------|---------------------------|
|---------------------------|---------------------------|

[ Tab from: http://www.guitartabs.cc/tabs/a/a_perfect_circle/the_package_tab_ver_4.html ]
  E5    D5           E5                      G5    E5 G5
   Q     E  E +E   E  E  E        +E   E +E   E  E  E  Q
|-------------------------------|----------------------------|
|--------5---------0------------|----------------------------|
|--4--------4-(4)-----4--4b4.5==|=(4)--4-(4)--4--4--4r=4-----|
|-------------------------------|----------------------------|
|-------------------------------|----------------------------|
|-------------------------------|----------------------------|
|
|  E  E  E  E  E   E  E  E         E   E  E   E  E  E  E  E
|-15-15-15-15-15--15-15-15------|-15--15-15--15-15-15-15-15--|
|-------------------------------|----------------------------|
|-------------------------------|----------------------------|
|-------------------------------|----------------------------|
|-------------------------------|----------------------------|
|-------------------------------|----------------------------|


 Chorus
  E5    G5            E5                G5    E5 G5
   Q     E  E  +E   E  Q       E  E +E   E  Q     E  E
|-10-------10-(10)-----9----|-----9-(9)-----9----------|
|-------12---------12-------|-12--------12-------12-12-|
|---------------------------|--------------------------|
|---------------------------|--------------------------|
|---------------------------|--------------------------|
|---------------------------|--------------------------|
|
|  E  E  E  E   E   E  E  E    E  E  E   E  E  E  E  E
|---------------------------|--------------------------|
|---------------------------|--------------------------|
|-12-12-12-12--12--12-12-12-|-12-12-12--12-12-12-12-12-|
|---------------------------|--------------------------|
|---------------------------|--------------------------|
|---------------------------|--------------------------|


  D5    E5                               G5      E5 G5
   E  E  +E   E  E  E  +E   E    E  E  E  E  +E   E  E  E
|----12-(12)-------12-(12)----|----12----14-(14)-12--------|
|-12---------12-12---------12-|-12----12------------12-12--|
|-----------------------------|----------------------------|
|-----------------------------|----------------------------|
|-----------------------------|----------------------------|
|-----------------------------|----------------------------|
|
|  E  E   E   E  E  E   E   E    E  E  E  E   E   E  E  E
|-----------------------------|----------------------------|
|-----------------------------|----------------------------|
|-11-11--11--11-11-11--11--11-|-11-11-11-11--11--11-11-11--|
|-----------------------------|----------------------------|
|-----------------------------|----------------------------|
|-----------------------------|----------------------------|


  E5    G5            E5                G5    E5 G5
   Q     E  E  +E   E  Q       E  E +E   E  Q     E  E
|-10-------10-(10)-----9----|-----9-(9)-----9----------|
|-------12---------12-------|-12--------12-------12-12-|
|---------------------------|--------------------------|
|---------------------------|--------------------------|
|---------------------------|--------------------------|
|---------------------------|--------------------------|
|
|  E  E  E  E   E   E  E  E    E  E  E   E  E  E  E  E
|---------------------------|--------------------------|
|---------------------------|--------------------------|
|-14-14-14-14--14--14-14-14-|-14-14-14--14-14-14-14-14-|
|---------------------------|--------------------------|
|---------------------------|--------------------------|
|---------------------------|--------------------------|


  E5    D5            E5                 G5      E5 G5
   E  E  +E   E  E  E  +E   E    E  E  E  E  +E   E  E  E
|----12-(12)-------12-(12)----|----12----14-(14)-12--------|
|-12---------12-12---------12-|-12----12------------12-12--|
|-----------------------------|----------------------------|
|-----------------------------|----------------------------|
|-----------------------------|----------------------------|
|-----------------------------|----------------------------|
|
|  E  E   E   E  E  E   E   E    E  E  E  E   E   E  E  E
|-----------------------------|----------------------------|
|-----------------------------|----------------------------|
|-12-12--12--12-12-12--12--12-|-12-12-12-12--12--12-12-12--|
|-----------------------------|----------------------------|
|-----------------------------|----------------------------|
|-----------------------------|----------------------------|


  E5    G5            E5                G5    E5 G5
   Q     E  E  +E   E  Q       E  E +E   E  Q     E  E
|-10-------10-(10)-----9----|-----9-(9)-----9----------|
|-------12---------12-------|-12--------12-------12-12-|
|---------------------------|--------------------------|
|---------------------------|--------------------------|
|---------------------------|--------------------------|
|---------------------------|--------------------------|
|
|  E  E  E  E   E   E  E  E    E  E  E   E  E  E  E  E
|---------------------------|--------------------------|
|---------------------------|--------------------------|
|-11-11-11-11--11--11-11-11-|-11-11-11--11-11-11-11-11-|
|---------------------------|--------------------------|
|---------------------------|--------------------------|
|---------------------------|--------------------------|


  D5    E5                               G5      E5 G5
   E  E  +E   E  E  E  +E   E    E  E  E  E  +E   E  E  E
|----12-(12)-------12-(12)----|----12----14-(14)-12--------|
|-12---------12-12---------12-|-12----12------------12-12--|
|-----------------------------|----------------------------|
|-----------------------------|----------------------------|
|-----------------------------|----------------------------|
|-----------------------------|----------------------------|
|
|  E  E   E   E  E  E   E   E    E  E  E  E   E   E  E  E
|-----------------------------|----------------------------|
|-----------------------------|----------------------------|
|-14-14--14--14-14-14--14--14-|-14-14-14-14--14--14-14-14--|
|-----------------------------|----------------------------|
|-----------------------------|----------------------------|
|-----------------------------|----------------------------|


  E5    G5            E5                G5    E5 G5
   Q     E  E  +E   E  Q       E  E +E   E  Q     E  E
|-10-------10-(10)-----9----|-----9-(9)-----9----------|
|-------12---------12-------|-12--------12-------12-12-|
|---------------------------|--------------------------|
|---------------------------|--------------------------|
|---------------------------|--------------------------|
|---------------------------|--------------------------|
|
|  E  E  E  E   E   E  E  E    E  E  E   E  E  E  E  E
|---------------------------|--------------------------|
|---------------------------|--------------------------|
|-12-12-12-12--12--12-12-12-|-12-12-12--12-12-12-12-12-|
|---------------------------|--------------------------|
|---------------------------|--------------------------|
|---------------------------|--------------------------|


  E5    D5            E5                 G5      E5 G5
   E  E  +E   E  E  E  +E   E    E  E  E  E  +E   E  E  E
|----12-(12)-------12-(12)----|----12----12-(12)----12-----||
|-12---------12-12---------12-|-12----12---------12----12--||
|-----------------------------|----------------------------||
|-----------------------------|----------------------------||
|-----------------------------|----------------------------||
|-----------------------------|----------------------------||
|
|  E  E   E   E  E  E   E   E    E  E  E  E   E   E  E  E
|-----------------------------|----------------------------||
|-----------------------------|----------------------------||
|-11-11--11--11-11-11--11--11-|-11-11-11-11--11--11-11-11--||
|-----------------------------|----------------------------||
|-----------------------------|----------------------------||
|-----------------------------|----------------------------||


 Breakdown
  F5       E5
  Gtr III
  Q  Q  Q  Q    E E E E +H       +Q    Q  +H          +H     +H
|-------------|----------------|--------------------|-------------------|
|-------------|----------------|--------------------|-------------------|
|-------------|----------------|--------------------|-------------------|
|-3--3--3--2--|-x-x-7-6-(6)----|-(6)--/9--(9)b11----|-(9)----(9)\-------|
|-3--3--3--2--|----------------|--------------------|-------------------|
|-1--1--1--0--|----------------|--------------------|-------------------|
|
| Gtr IV
| Q  Q  Q  Q    W                 W                    H      Q    Q
|-------------|----------------|--------------------|-------------------|
|-------------|----------------|--------------------|-------------------|
|-------------|----------------|--------------------|-------------------|
|-3--3--3--2--|----------------|--------------------|-------------------|
|-3--3--3--2--|----------------|--------------------|--------------x\---|
|-1--1--1--0--|----------------|--------------------|--------------x\---|


  F5        E5
  Q   Q  Q  Q    E E E E +H       +Q   H.        +H     +H
|--------------|----------------|--------------|----------------|
|--------------|----------------|--------------|----------------|
|--------------|----------------|--------------|----------------|
|-3---3--3--2--|-x-x-7-6-(6)----|-(6)S=2-------|-(2)----(2)\----|
|-3r--3--3--2--|----------------|--------------|----------------|
|-1---1--1--0--|----------------|--------------|----------------|
|
| Q   Q  Q  Q    W                 W              W
|--------------|----------------|--------------|----------------|
|--------------|----------------|--------------|----------------|
|--------------|----------------|--------------|----------------|
|-3---3--3--2--|----------------|--------------|----------------|
|-3---3--3--2--|----------------|--------------|----------------|
|-1---1--1--0--|----------------|--------------|----------------|


  F5       E5
                                         ~~~
  Q  Q  Q  Q    E E E E +H         +Q    H.           Q   Q   Q  +Q
|-------------|------------------|------------------|-------------------|
|-------------|------------------|------------------|-9--10---9--(9)\---|
|-------------|------------------|------/9----------|-------------------|
|-3--3--3--2--|-x-x-7-6-(6)------|-(6)--------------|-------------------|
|-3--3--3--2--|------------------|------------------|-------------------|
|-1--1--1--0--|------------------|------------------|-------------------|
|
| Q  Q  Q  Q    E E Q    Q   E E    H        E E Q    Q   E E Q   Q
|-------------|------------------|------------------|-------------------|
|-------------|------------------|------------------|-------------------|
|-------------|------------------|------------------|-------------------|
|-3--3--3--2--|------------------|------------------|-------------------|
|-3--3--3--2--|-x-x----------x-x-|-----------x-x----|-----x-x-----------|
|-1--1--1--0--|-x-x----------x-x-|-----------x-x----|-----x-x-----x\----|


  F5       E5
  Q  Q  Q  Q    E E E E +H         +Q   H      +Q       +H       +H
|-------------|------------------|--------------------|---------------------|
|-------------|------------------|--------------------|---------------------|
|-------------|------------------|--------------------|---------------------|
|-3--3--3--2--|-x-x-7-6-(6)------|-(6)S=2------(2)b4--|-(2)------(2)\-------|
|-3--3--3--2--|------------------|--------------------|---------------------|
|-1--1--1--0--|------------------|--------------------|---------------------|
|
| Q  Q  Q  Q    E E Q    Q   E E    H      E E  Q        Q   E E  Q    Q
|-------------|------------------|--------------------|---------------------|
|-------------|------------------|--------------------|---------------------|
|-------------|------------------|--------------------|---------------------|
|-3--3--3--2--|------------------|--------------------|---------------------|
|-3--3--3--2--|-x-x----------x-x-|---------x-x--------|------x-x------------|
|-1--1--1--0--|-x-x----------x-x-|---------x-x--------|------x-x-------x\---|


  F5        E5
                                          ~~~
  Q   Q  Q  Q    E E E E +H         +Q    H.           Q   Q    Q   +Q
|--------------|------------------|------------------|---------------------|
|--------------|------------------|------------------|-9--10---[9]--(9)\---|
|--------------|------------------|------/9----------|---------------------|
|-3---3--3--2--|-x-x-7-6-(6)------|-(6)--------------|---------------------|
|-3r--3--3--2--|------------------|------------------|---------------------|
|-1---1--1--0--|------------------|------------------|---------------------|
|
| Q   Q  Q  Q    E E Q    Q   E E    H        E E Q    Q   E E  Q    Q
|--------------|------------------|------------------|---------------------|
|--------------|------------------|------------------|---------------------|
|--------------|------------------|------------------|---------------------|
|-3---3--3--2--|------------------|------------------|---------------------|
|-3---3--3--2--|-x-x----------x-x-|-----------x-x----|-----x-x-------------|
|-1---1--1--0--|-x-x----------x-x-|-----------x-x----|-----x-x-------x\----|


  F5       E5
  Q  Q  Q  Q    E E E E +H       +W           +H.       E    E
|-------------|----------------|------------|----------14\------||
|-------------|----------------|------------|--------------/12--||
|-------------|----------------|------------|-------------------||
|-3--3--3--2--|-x-x-7-6-(6)----|-(6)--------|-(6)---------------||
|-3--3--3--2--|----------------|------------|-------------------||
|-1--1--1--0--|----------------|------------|-------------------||
|
| Q  Q  Q  Q    W                 W            W
|-------------|----------------|------------|-------------------||
|-------------|----------------|------------|-------------------||
|-------------|----------------|------------|-------------------||
|-3--3--3--2--|----------------|------------|-------------------||
|-3--3--3--2--|----------------|------------|-------------------||
|-1--1--1--0--|----------------|------------|-------------------||


   Guitar Solo
    E5  G5             E5             G5     E5G5
     ~~      ~~        ~        ~         ~~~
     Q   E   E  +E   E Q      E E +E   E  Q     E  E
||--10------10-(10)----9---|----9-(9)-----9----------|
||o-----12----------12-----|-12-------12-------12-12-|
||-------------------------|-------------------------|
||-------------------------|-------------------------|
||o------------------------|-------------------------|
||-------------------------|-------------------------|
|
|    Q   H             E E    Q    E   E +E  E  Q
||-------------------------|-------------------------|
||o------------------------|-------------------------|
||-------------------------|-------------------------|
||---9--12\----------------|-------------------------|
||o--7--10\------------2-2-|-------2---------2-------|
||---------------------0-0-|-------0---3-(3)-0--3----|


  D5    E5                               G5      E5 G5
      ~~            ~~              ~~
   E  E  +E   E  E  E  +E   E    E  E  E  E  +E   E  E  E
|----12-(12)-------12-(12)----|----12----14-(14)-12-------|
|-12---------12-12---------12-|-12----12------------12-12-|
|-----------------------------|---------------------------|
|-----------------------------|---------------------------|
|-----------------------------|---------------------------|
|-----------------------------|---------------------------|
|
|  Q      H             E   E    Q     E  E  +E   E  Q
|-----------------------------|---------------------------|
|-----------------------------|---------------------------|
|-----------------------------|---------------------------|
|--7------9\------------------|---------------------------|
|--5------7\------------2---2-|--------2----------2-------|
|-----------------------0---0-|--------0--3--(3)--0--3----|


  E5  G5             E5             G5     E5G5
   ~~      ~~        ~        ~         ~~~
   Q   E   E  +E   E Q      E E +E   E  Q     E  E
|-10------10-(10)----9---|----9-(9)-----9----------|
|-----12----------12-----|-12-------12-------12-12-|
|------------------------|-------------------------|
|------------------------|-------------------------|
|------------------------|-------------------------|
|------------------------|-------------------------|
|
|  Q   H             E E    Q    E   E +E  E  Q
|------------------------|-------------------------|
|------------------------|-------------------------|
|------------------------|-------------------------|
|--9--12\----------------|-------------------------|
|--7--10\------------2-2-|-------2---------2-------|
|--------------------0-0-|-------0---3-(3)-0--3----|


  E5    D5            E5                 G5      E5 G5
      ~~            ~~                    ~~
   E  E  +E   E  E  E  +E   E    E  E  E  E  +E   E  E  E
|----12-(12)-------12-(12)----|----12----12-(12)----12------||
|-12---------12-12---------12-|-12----12---------12----12--o||
|-----------------------------|-----------------------------||
|-----------------------------|-----------------------------||
|-----------------------------|----------------------------o||
|-----------------------------|-----------------------------||
|
|  Q      H             E   E    Q     E  E  +E   E  Q
|-----------------------------|-----------------------------||
|-----------------------------|----------------------------o||
|-----------------------------|-----------------------------||
|--9------7\------------------|-----------------------------||
|--7------5\------------2---2-|--------2----------2--------o||
|-----------------------0---0-|--------0--3--(3)--0--3------||


 Out-Chorus
  E5    G5           E5               G5     E5 G5
   E  E  E   E  E  E  E  E    E  E  E  E  E   E  E  E
|--------------------------|--------------------------|
|--------------------------|--------------------------|
|-12-12-12--12-12-12-12-12-|-12-12-12-12-12--12-12-12-|
|--------------------------|--------------------------|
|--------------------------|--------------------------|
|--------------------------|--------------------------|
|
|  Q     H            E  E    Q     E  E +E   E  Q
|--------------------------|--------------------------|
|--------------------------|--------------------------|
|--------------------------|--------------------------|
|--9----12\----------------|--------------------------|
|--7----10\-----------2--2-|--------2---------2-------|
|---------------------0--0-|--------0--3-(3)--0--3----|


  D5    E5                            G5     E5 G5
   E  E  E   E  E  E  E  E    E  E  E  E  E   E  E  E
|--------------------------|---------------------------|
|--------------------------|---------------------------|
|-11-11-11--11-11-11-11-11-|-11-11-11-11-11--11-11-11--|
|--------------------------|---------------------------|
|--------------------------|---------------------------|
|--------------------------|---------------------------|
|
|  Q     H            E  E    Q     E  E +E   E  Q
|--------------------------|---------------------------|
|--------------------------|---------------------------|
|--------------------------|---------------------------|
|--7-----9\----------------|---------------------------|
|--5-----7\-----------2--2-|--------2---------2--------|
|---------------------0--0-|--------0--3-(3)--0--3-----|


  D5    E5                            G5     E5 G5
   E  E  E   E  E  E  E  E    E  E  E  E  E   E  E  E
|--------------------------|--------------------------|
|--------------------------|--------------------------|
|-14-14-14--14-14-14-14-14-|-14-14-14-14-14--14-14-14-|
|--------------------------|--------------------------|
|--------------------------|--------------------------|
|--------------------------|--------------------------|
|
|  Q     H            E  E    Q     E  E +E   E  Q
|--------------------------|--------------------------|
|--------------------------|--------------------------|
|--------------------------|--------------------------|
|--7-----9\----------------|--------------------------|
|--5-----7\-----------2--2-|--------2---------2-------|
|---------------------0--0-|--------0--3-(3)--0--3----|


  E5    D5           E5               G5     E5 G5
   E  E  E   E  E  E  E  E    E  E  E  E  E   E  E  E
|--------------------------|---------------------------|
|--------------------------|---------------------------|
|-12-12-12--12-12-12-12-12-|-12-12-12-12-12--12-12-12--|
|--------------------------|---------------------------|
|--------------------------|---------------------------|
|--------------------------|---------------------------|
|
|  Q     H            E  E    Q     E  E +E   E  Q
|--------------------------|---------------------------|
|--------------------------|---------------------------|
|--------------------------|---------------------------|
|--9-----7\----------------|---------------------------|
|--7-----5\-----------2--2-|--------2---------2--------|
|---------------------0--0-|--------0--3-(3)--0--3-----|


  E5    G5           E5               G5     E5 G5
   E  E  E   E  E  E  E  E    E  E  E  E  E   E  E  E
|--------------------------|--------------------------|
|--------------------------|--------------------------|
|-11-11-11--11-11-11-11-11-|-11-11-11-11-11--11-11-11-|
|--------------------------|--------------------------|
|--------------------------|--------------------------|
|--------------------------|--------------------------|
|
|  Q     H            E  E    Q     E  E +E   E  Q
|--------------------------|--------------------------|
|--------------------------|--------------------------|
|--------------------------|--------------------------|
|--9----12\----------------|--------------------------|
|--7----10\-----------2--2-|--------2---------2-------|
|---------------------0--0-|--------0--3-(3)--0--3----|


  D5    E5                            G5     E5 G5
   E  E  E   E  E  E  E  E    E  E  E  E  E   E  E  E
|--------------------------|---------------------------|
|--------------------------|---------------------------|
|-14-14-14--14-14-14-14-14-|-14-14-14-14-14--14-14-14--|
|--------------------------|---------------------------|
|--------------------------|---------------------------|
|--------------------------|---------------------------|
|
|  Q     H            E  E    Q     E  E +E   E  Q
|--------------------------|---------------------------|
|--------------------------|---------------------------|
|--------------------------|---------------------------|
|--7-----9\----------------|---------------------------|
|--5-----7\-----------2--2-|--------2---------2--------|
|---------------------0--0-|--------0--3-(3)--0--3-----|


  D5    E5                            G5     E5 G5
   E  E  E   E  E  E  E  E    E  E  E  E  E   E  E  E
|--------------------------|--------------------------|
|--------------------------|--------------------------|
|-12-12-12--12-12-12-12-12-|-12-12-12-12-12--12-12-12-|
|--------------------------|--------------------------|
|--------------------------|--------------------------|
|--------------------------|--------------------------|
|
|  Q     H            E  E    Q     E  E +E   E  Q
|--------------------------|--------------------------|
|--------------------------|--------------------------|
|--------------------------|--------------------------|
|--7-----9\----------------|--------------------------|
|--5-----7\-----------2--2-|--------2---------2-------|
|---------------------0--0-|--------0--3-(3)--0--3----|


  E5    D5           E5               G5     E5 G5
   E  E  E   E  E  E  E  E    E  E  E  E  E   E  E  E
|--------------------------|---------------------------||
|--------------------------|---------------------------||
|-11-11-11--11-11-11-11-11-|-11-11-11-11-11--11-11-11--||
|--------------------------|---------------------------||
|--------------------------|---------------------------||
|--------------------------|---------------------------||
|
|  Q     H            E  E    Q     E  E +E   E  Q
|--------------------------|---------------------------||
|--------------------------|---------------------------||
|--------------------------|---------------------------||
|--9-----7\----------------|---------------------------||
|--7-----5\-----------2--2-|--------2---------2--------||
|---------------------0--0-|--------0--3-(3)--0--3-----||


  F5       E5
  Q  Q  Q  Q    E   E   E E +H
|-------------|------------------------------|
|-------------|------------------------------|
|-------------|------------------------------|
|-3--3--3--2--|-x---x---7-6-(6)--------------|
|-3--3--3--2--|------------------------------|
|-1--1--1--0--|------------------------------|
|
| Q  Q  Q  Q    E   E   Q    Q     E     E
|-------------|------------------------------|
|-------------|------------------------------|
|-------------|------------------------------|
|-3--3--3--2--|---(<5>)----------(<5>)-(<5>)-|
|-3--3--3--2--|-----x--------x-----x-----x---|
|-1--1--1--0--|-----x--------x-----x-----x---|


  +Q     Q     +H                 +H                +H
|------------------------------|----------------------------------|
|------------------------------|----------------------------------|
|------------------------------|----------------------------------|
|-(6)---/9-----(9)b11----------|--(9)---------------(9)\----------|
|------------------------------|----------------------------------|
|------------------------------|----------------------------------|
|
|  Q     Q      E       E   Q      Q      E     E    Q      Q
|------------------------------|----------------------------------|
|------------------------------|----------------------------------|
|------------------------------|----------------------------------|
|------(<5>)--(<5>)---(<5>)----|-(<5>)--(<5>)-(<5>)---------------|
|--------x------x-------x------|---x------x-----x-----------------|
|--------x------x-------x------|---x------x-----x---------(15)\---|


  F5        E5
  Q   Q  Q  Q    E   E   E E  +H
|--------------|--------------------------------|
|--------------|--------------------------------|
|--------------|--------------------------------|
|-3---3--3--2--|-x---x---7-6--(6)---------------|
|-3r--3--3--2--|--------------------------------|
|-1---1--1--0--|--------------------------------|
|
| Q   Q  Q  Q    E   E   Q     Q      E     E
|--------------|--------------------------------|
|--------------|--------------------------------|
|--------------|--------------------------------|
|-3---3--3--2--|-----x---------x------x-----x---|
|-3---3--3--2--|-----x---------x------x-----x---|
|-1---1--1--0--|---(<7>)-----(<7>)--(<7>)-(<7>)-|


  +Q     H                +Q        +H                +H
|--------------------------------|-------------------------------|
|--------------------------------|-------------------------------|
|--------------------------------|-------------------------------|
|-(6)S===2----------------(2)b4--|--(2)---------------(2)\-------|
|--------------------------------|-------------------------------|
|--------------------------------|-------------------------------|
|
|  Q     Q      E     E    Q         Q      E     E    Q    Q
|--------------------------------|-------------------------------|
|--------------------------------|-------------------------------|
|--------------------------------|-------------------------------|
|--------x------x-----x----------|---x------x-----x--------------|
|--------x------x-----x----------|---x------x-----x--------------|
|------(<7>)--(<7>)-(<7>)--------|-(<7>)--(<7>)-(<7>)-------x\---|


  F5        E5
  Q   Q  Q  Q    E   E     E   E +H
|--------------|------------------------------|
|--------------|------------------------------|
|--------------|------------------------------|
|-3---3--3--2--|-x---x-----7---6-(6)----------|
|-3r--3--3--2--|------------------------------|
|-1---1--1--0--|------------------------------|
|
| Q   Q  Q  Q    E   E    +Q      Q   E   E
|--------------|------------------------------|
|--------------|------------------------------|
|--------------|------------------------------|
|-3---3--3--2--|-----x----(x)-------------x---|
|-3---3--3--2--|-----x----(x)-------------x---|
|-1---1--1--0--|---(<3>)-(<3>)----------(<3>)-|


          ~~~
   +Q     H.                   Q   Q         Q    +Q
|----------------------------|---------------------------|
|----------------------------|-9--10---------9----(9)\---|
|----------------------------|---------------------------|
|--(6)---/9------------------|---------------------------|
|----------------------------|---------------------------|
|----------------------------|---------------------------|
|
|  +Q     Q   E   E    +Q      Q   E   E    +Q     Q
|----------------------------|---------------------------|
|----------------------------|---------------------------|
|----------------------------|---------------------------|
|--(x)------------x----(x)---|---------x----(x)----------|
|--(x)------------x----(x)---|---------x----(x)----------|
|-(<3>)---------(<3>)-(<3>)--|-------(<3>)-(<3>)---x\----|


  F5       E5
                                                       Gtr I
  Q  Q  Q  Q    E E E E +H       +W           +H.      E  E
|-------------|----------------|------------|----------------||
|-------------|----------------|------------|------------12--||
|-------------|----------------|------------|----------------||
|-3--3--3--2--|-x-x-7-6-(6)----|-(6)--------|-(6)------------||
|-3--3--3--2--|----------------|------------|----------------||
|-1--1--1--0--|----------------|------------|----------------||
|
| Q  Q  Q  Q    W                 W            W
|-------------|----------------|------------|----------------||
|-------------|----------------|------------|----------------||
|-------------|----------------|------------|----------------||
|-3--3--3--2--|----------------|------------|----------------||
|-3--3--3--2--|----------------|------------|----------------||
|-1--1--1--0--|----------------|------------|----------------||


 Outro
  E5  G5             E5                G5    E5G5
  Gtr I
   Q   E   E  +E   E  Q      E  E  +E   E  Q    E  E
|-10------10-(10)-----9---|-----9--(9)-----9---------|
|-----12----------12------|-12---------12------12-12-|
|-------------------------|--------------------------|
|-------------------------|--------------------------|
|-------------------------|--------------------------|
|-------------------------|--------------------------|
|
| Gtr II
|  Q  +E   E  +E   E  E E    E  E   E   E  E E  Q
|---------15-(15)----15---|----15-(15)----15---------|
|--0--(0)----------0----0-|--0------0---0----0--0----|
|-------------------------|--------------------------|
|-------------------------|--------------------------|
|-------------------------|--------------------------|
|-------------------------|--------------------------|


  D5    E5                                   G5      E5 G5
   E  E  +E   E   E   E  +E   E    E  E   E   E  +E   E  E  E
|----12-(12)---------12-(12)----|----12------14-(14)-12--------|
|-12---------12--12----------12-|-12-----12-------------12-12--|
|-------------------------------|------------------------------|
|-------------------------------|------------------------------|
|-------------------------------|------------------------------|
|-------------------------------|------------------------------|
|
|  E  E   E   E   E   E   E   E    E  E   E   E   E   E  Q
|-14---------14-(14)-----14-----|----14-(14)-----14------------|
|-----0---0-------0---0-------0-|--0------0---0-------0--0-----|
|-------------------------------|------------------------------|
|-------------------------------|------------------------------|
|-------------------------------|------------------------------|
|-------------------------------|------------------------------|


  E5   G5            E5                G5    E5G5
   Q    E  E  +E   E  Q      E  E  +E   E  Q    E  E
|-10------10-(10)-----9---|-----9--(9)-----9---------|
|------12---------12------|-12---------12------12-12-|
|-------------------------|--------------------------|
|-------------------------|--------------------------|
|-------------------------|--------------------------|
|-------------------------|--------------------------|
|
|  E E  E  E   E   E  E E    E  E   E   E  E E  Q
|-17------17-(17)----17---|----17-(17)----17---------|
|----0--0------0---0----0-|--0------0---0----0--0----|
|-------------------------|--------------------------|
|-------------------------|--------------------------|
|-------------------------|--------------------------|
|-------------------------|--------------------------|


  E5         D5            E5                G5    E5G5
   Q          E  E  +E   E  Q      E  E  +E   E  Q    E  E
|-------------------------------|---------------------------|
|-12b12.5====12-12-(12)-12-12---|-12-12-(12)-12r12---12-12--|
|-------------------------------|---------------------------|
|-------------------------------|---------------------------|
|-------------------------------|---------------------------|
|-------------------------------|---------------------------|
|
|  E       E  E  E   E   E  E E    E  E   E   E  E E  Q
|-15------------15-(15)----15---|----15-(15)----15----------|
|----------0--0------0---0----0-|--0------0---0----0--0-----|
|-------------------------------|---------------------------|
|-------------------------------|---------------------------|
|-------------------------------|---------------------------|
|-------------------------------|---------------------------|


  E5    G5            E5                G5    E5 G5
   Q     E  E  +E   E  Q       E  E +E   E  Q     E  E
|-10-------10-(10)-----9----|-----9-(9)-----9----------|
|-------12---------12-------|-12--------12-------12-12-|
|---------------------------|--------------------------|
|---------------------------|--------------------------|
|---------------------------|--------------------------|
|---------------------------|--------------------------|
|
|  E  E  E  E   E   E  E  E    E  E  E   E  E  E  Q
|-14-------14---------14----|----14--------14----------|
|---------------------------|--------------------------|
|----11-11-----11--11----11-|-11----11--11----11-11----|
|---------------------------|--------------------------|
|---------------------------|--------------------------|
|---------------------------|--------------------------|


  D5    E5                               G5      E5 G5
   E  E  +E   E  E  E  +E   E    E  E  E  E  +E   E  E  E
|----12-(12)-------12-(12)----|----12----14-(14)-12--------|
|-12---------12-12---------12-|-12----12------------12-12--|
|-----------------------------|----------------------------|
|-----------------------------|----------------------------|
|-----------------------------|----------------------------|
|-----------------------------|----------------------------|
|
|  E  E   E   E  E  E   E   E    E  E  E  E   E   E  Q
|-17---------17--------17-----|----17--------17------------|
|-----------------------------|----------------------------|
|----14--14-----14-14------14-|-14----14-14------14-14-----|
|-----------------------------|----------------------------|
|-----------------------------|----------------------------|
|-----------------------------|----------------------------|


  E5    G5            E5                G5    E5 G5
   Q     E  E  +E   E  Q       E  E +E   E  Q     E  E
|-10-------10-(10)-----9----|-----9-(9)-----9----------|
|-------12---------12-------|-12--------12-------12-12-|
|---------------------------|--------------------------|
|---------------------------|--------------------------|
|---------------------------|--------------------------|
|---------------------------|--------------------------|
|
|  E  E  E  E   E   E  E  E    E  E  E   E  E  E  Q
|-15-------15---------15----|----15--------15----------|
|----12-12-----12--12----12-|-12----12--12----12-12----|
|---------------------------|--------------------------|
|---------------------------|--------------------------|
|---------------------------|--------------------------|
|---------------------------|--------------------------|


  E5          D5            E5                 G5    E5 G5
   Q           E  E  +E   E  Q       E  E  +E   E  Q     E  E
|---------------------------------|----------------------------|
|-12b12.5=====12-12-(12)-12-12----|-12-12-(12)-12r12----12-12--|
|---------------------------------|----------------------------|
|---------------------------------|----------------------------|
|---------------------------------|----------------------------|
|---------------------------------|----------------------------|
|
|  E        E  E  E   E   E  E  E    E  E   E   E  E  E  Q
|-14-------------14---------14----|----14---------14-----------|
|----------15-15-----15--15----15-|-15-----15--15----15-15-----|
|---------------------------------|----------------------------|
|---------------------------------|----------------------------|
|---------------------------------|----------------------------|
|---------------------------------|----------------------------|


  E5    G5            E5                G5    E5 G5
   Q     E  E  +E   E  Q       E  E +E   E  Q     E  E
|-10-------10-(10)-----9----|-----9-(9)-----9----------|
|-------12---------12-------|-12--------12-------12-12-|
|---------------------------|--------------------------|
|---------------------------|--------------------------|
|---------------------------|--------------------------|
|---------------------------|--------------------------|
|
|  E  E  E  E   E   E  E  E    E  E  E   E  E  E  Q
|-17-------17---------17----|----17--------17----------|
|---------------------------|--------------------------|
|----16-16-----16--16----16-|-16----16--16----16-16----|
|---------------------------|--------------------------|
|---------------------------|--------------------------|
|---------------------------|--------------------------|


  D5    E5                               G5      E5 G5
   E  E  +E   E  E  E  +E   E    E  E  E  E  +E   E  E  E
|----12-(12)-------12-(12)----|----12----14-(14)-12--------|
|-12---------12-12---------12-|-12----12------------12-12--|
|-----------------------------|----------------------------|
|-----------------------------|----------------------------|
|-----------------------------|----------------------------|
|-----------------------------|----------------------------|
|
|  E  E   E   E  E  E   E   E    E  E  E  E   E   E  Q
|-15---------15--------15-----|----15--------15------------|
|-----------------------------|----------------------------|
|----16--16-----16-16------16-|-16----16-16------16-16-----|
|-----------------------------|----------------------------|
|-----------------------------|----------------------------|
|-----------------------------|----------------------------|


  E5    G5            E5                G5    E5 G5
   Q     E  E  +E   E  Q       E  E +E   E  Q     E  E
|-10-------10-(10)-----9----|-----9-(9)-----9----------|
|-------12---------12-------|-12--------12-------12-12-|
|---------------------------|--------------------------|
|---------------------------|--------------------------|
|---------------------------|--------------------------|
|---------------------------|--------------------------|
|
|  E  E  E  E   E   E  E  E    E  E  E   E  E  E  Q
|-14-------14---------14----|----14--------14----------|
|----15-15-----15--15----15-|-15----15--15----15-15----|
|---------------------------|--------------------------|
|---------------------------|--------------------------|
|---------------------------|--------------------------|
|---------------------------|--------------------------|


  E5          D5            E5                 G5    E5 G5
   Q           E  E  +E   E  Q       E  E  +E   E  Q     E  E
|---------------------------------|----------------------------|
|-12b12.5=====12-12-(12)-12-12----|-12-12-(12)-12r12----12-12--|
|---------------------------------|----------------------------|
|---------------------------------|----------------------------|
|---------------------------------|----------------------------|
|---------------------------------|----------------------------|
|
|  E        E  E  E   E   E  E  E    E  E   E   E  E  E  Q
|-17-------------17---------17----|----17---------17-----------|
|----------14-14-----14--14----14-|-14-----14--14----14-14-----|
|---------------------------------|----------------------------|
|---------------------------------|----------------------------|
|---------------------------------|----------------------------|
|---------------------------------|----------------------------|


  E5    G5            E5                G5    E5 G5
   Q     E  E  +E   E  Q       E  E +E   E  Q     E  E
|-10-------10-(10)-----9----|-----9-(9)-----9----------|
|-------12---------12-------|-12--------12-------12-12-|
|---------------------------|--------------------------|
|---------------------------|--------------------------|
|---------------------------|--------------------------|
|---------------------------|--------------------------|
|
|  E  E  E  E   E   E  E  E    E  E  E   E  E  E  Q
|-15-------15---------15----|----15--------15----------|
|----12-12-----12--12----12-|-12----12--12----12-12----|
|---------------------------|--------------------------|
|---------------------------|--------------------------|
|---------------------------|--------------------------|
|---------------------------|--------------------------|


  D5    E5                               G5      E5 G5
   E  E  +E   E  E  E  +E   E    E  E  E  E  +E   E  E  E
|----12-(12)-------12-(12)----|----12----14-(14)-12--------|
|-12---------12-12---------12-|-12----12------------12-12--|
|-----------------------------|----------------------------|
|-----------------------------|----------------------------|
|-----------------------------|----------------------------|
|-----------------------------|----------------------------|
|
|  E  E   E   E  E  E   E   E    E  E  E  E   E   E  Q
|-14---------14--------14-----|----14--------14------------|
|----15--15-----15-15------15-|-15----15-15------15-15-----|
|-----------------------------|----------------------------|
|-----------------------------|----------------------------|
|-----------------------------|----------------------------|
|-----------------------------|----------------------------|


  E5    G5            E5                G5    E5 G5
   Q     E  E  +E   E  Q       E  E +E   E  Q     E  E
|-10-------10-(10)-----9----|-----9-(9)-----9----------|
|-------12---------12-------|-12--------12-------12-12-|
|---------------------------|--------------------------|
|---------------------------|--------------------------|
|---------------------------|--------------------------|
|---------------------------|--------------------------|
|
|  E  E  E  E   E   E  E  E    E  E  E   E  E  E  Q
|-17-------17---------17----|----17--------17----------|
|----19-19-----19--19----19-|-19----19--19----19-19----|
|---------------------------|--------------------------|
|---------------------------|--------------------------|
|---------------------------|--------------------------|
|---------------------------|--------------------------|


  E5          D5            E5                 G5    E5 G5
   Q           E  E  +E   E  Q       E  E  +E   E  Q     E  E
|---------------------------------|----------------------------|
|-12b12.5=====12-12-(12)-12-12----|-12-12-(12)-12r12----12-12--|
|---------------------------------|----------------------------|
|---------------------------------|----------------------------|
|---------------------------------|----------------------------|
|---------------------------------|----------------------------|
|
|  E        E  E  E   E   E  E  E    E  E   E   E  E  E  Q
|-15-------------15---------15----|----15---------15-----------|
|----------17-17-----17--17----17-|-17-----17--17----17-17-----|
|---------------------------------|----------------------------|
|---------------------------------|----------------------------|
|---------------------------------|----------------------------|
|---------------------------------|----------------------------|


  E5    G5            E5                G5    E5 G5
   Q     E  E  +E   E  Q       E  E +E   E  Q     E  E
|-10-------10-(10)-----9----|-----9-(9)-----9----------|
|-------12---------12-------|-12--------12-------12-12-|
|---------------------------|--------------------------|
|---------------------------|--------------------------|
|---------------------------|--------------------------|
|---------------------------|--------------------------|
|
|  E  E  E  E   E   E  E  E    E  E  E   E  E  E  Q
|-14-------14---------14----|----14--------14----------|
|----15-15-----15--15----15-|-15----15--15----15-15----|
|---------------------------|--------------------------|
|---------------------------|--------------------------|
|---------------------------|--------------------------|
|---------------------------|--------------------------|


  D5    E5                               G5      E5 G5
   E  E  +E   E  E  E  +E   E    E  E  E  E  +E   E  E  E
|----12-(12)-------12-(12)----|----12----14-(14)-12--------*|
|-12---------12-12---------12-|-12----12------------12-12--*|
|-----------------------------|----------------------------*|
|-----------------------------|----------------------------*|
|-----------------------------|----------------------------*|
|-----------------------------|----------------------------*|
|
|  E  E   E   E  E  E   E   E    E  E  E  E   E   E  Q
|-17---------17--------17-----|----17--------17------------*|
|----14--14-----14-14------14-|-14----14-14------14-14-----*|
|-----------------------------|----------------------------*|
|-----------------------------|----------------------------*|
|-----------------------------|----------------------------*|
|-----------------------------|----------------------------*|


Duration Legend
---------------
W - whole; H - half; Q - quarter; E - 8th; S - 16th; T - 32nd; X - 64th; a - acciaccatura
+ - note tied to previous; . - note dotted; .. - note double dotted
Uncapitalized letters represent notes that are staccato (1/2 duration)
Irregular groupings are notated above the duration line
Duration letters will always appear directly above the note/fret number it represents the
duration for.  Duration letters with no fret number below them represent rests.  Multi-
bar rests are notated in the form Wxn, where n is the number of bars to rest for.  Low
melody durations appear below the staff

Tablature Legend
----------------
 h   - hammer-on
 p   - pull-off
 b   - bend
 pb  - pre-bend
 r   - bend release (if no number after the r, then release immediately)
 /\  - slide into or out of (from/to "nowhere")
 s   - legato slide
 S   - shift slide
  - natural harmonic
[n]  - artificial harmonic
n(n) - tapped harmonic
 ~   - vibrato
 tr  - trill
 T   - tap
 TP  - trem. picking
 PM  - palm muting
\n/  - tremolo bar dip; n = amount to dip
 \n  - tremolo bar down
 n/  - tremolo bar up
/n\  - tremolo bar inverted dip
 =   - hold bend; also acts as connecting device for hammers/pulls
 <>  - volume swell (louder/softer)
 x   - on rhythm slash represents muted slash
 o   - on rhythm slash represents single note slash

Misc Legend
-----------
 |  - bar
||  - double bar
||o - repeat start
o|| - repeat end
*|  - double bar (ending)
 :  - bar (freetime)
 $  - Segno
 &  - Coda
Tempo markers -  = BPM(8/16=s8/s16), where s8 = swing 8ths, s16 = swing 16ths


***************************************************************************************
* Generated using Power Tab Editor by Brad Larsen - http://powertab.guitarnetwork.org *
***************************************************************************************
Comments