A Perfect Circle - The Package Chords & Tabs

 

The Package Chords & Tabs

A Perfect Circle Chords & Tabs

Version: 2 Type: Tab 0 ratings
1 star 2 stars 3 stars 4 stars 5 stars
comments

The Package Tab

   
Song: the package
Artist: A perfect circle

[ Tab from: http://www.guitartabs.cc/tabs/a/a_perfect_circle/the_package_tab_ver_2.html ]
heres the tuning(i forgot to mention)
c# f# b e g# c#
intro
e--------------------------------------------------------14--------
b--15----15---14----14----14--------1717---17----1717-------17-----
g-----16---16----16----16----16--16-----16----16------16-------16--
d------------------------------------------------------------------
a------------------------------------------------------------------
e------------------------------------------------------------------
verse
e------------------------------------------------------------------------
b------------------------------------------------------------------------
g------------------------------------------------------------------------
d--16-1616-14~--16h17--17-1717-17-17-17h19-16--1616-1614-141414-14------
a-------------------------------------------------------------------14~--
e------------------------------------------------------------------------
chorus
e--------------------------------------------------------14--------
b--15----15---14----14----14--------1717---17----1717-------17-----
g-----16---16----16----16----16--16-----16----16------16-------16--
d------------------------------------------------------------------
a------------------------------------------------------------------
e------------------------------------------------------------------
verse
e------------------------------------------------------------------------
b------------------------------------------------------------------------
g------------------------------------------------------------------------
d--16-1616-14~--16h17--17-1717-17-17-17h19-16--1616-1614-141414-14------
a-------------------------------------------------------------------14~--
e------------------------------------------------------------------------
chorus
e--------------------------------------------------------14--------
b--15----15---14----14----14--------1717---17----1717-------17-----
g-----16---16----16----16----16--16-----16----16------16-------16--
d------------------------------------------------------------------
a------------------------------------------------------------------
e------------------------------------------------------------------
riff a
e-----------------------------------------------------------------
b-----------------------------------------------------------------
g-----------------------------------------------------------------
d--3-3-3--2--xx—7p6—7/9--9-----3-3-3--2—-x-7p6—2bbbbb-------------
a--3-3-3--2--xx----------------3-3-3--2--x------------------------
e--1-1-1--0--xx----------------1-1-1--0--x------------------------
variations of this part
e---------------------------------------------------------
b-------------------------9-10-9--------------------------
g---------------------------------------------------------
d--3-3-3--2--xx—7p6—-7/9----------3-3-3--2--xx-7p6bbbbbb--
a--3-3-3--2--xx-------------------3-3-3--2--xx------------
e--1-1-1--0--xx-------------------1-1-1--0--xx------------
lead: chorus 
e--------------------------------------------------------14--------
b--15----15---14----14----14--------1717---17----1717-------17-----
g-----16---16----16----16----16--16-----16----16------16-------16--
d------------------------------------------------------------------
a------------------------------------------------------------------
e------------------------------------------------------------------
rythem chorus
e--------------------------------------------
b--------------------------------------------
g--7-9------------------7-9-----------------
d--7-9---2-2--2-5--2-2--7-9--2-2--2-5--2-2--
a--5-7---2-2--2-5--2-2--5-7--2-2--2-5--2-2--
e---------0-0--0-3--0-0-------0-0--0-3--0-0—

after four bars both: chorus
e--------------------------------------------
b--------------------------------------------
g--7-9------------------7-9-----------------
d--7-9---2-2--2-5--2-2--7-9--2-2--2-5--2-2--
a--5-7---2-2--2-5--2-2--5-7--2-2--2-5--2-2--
e---------0-0--0-3--0-0-------0-0--0-3--0-0—
riff a
e-----------------------------------------------------------------
b-----------------------------------------------------------------
g-----------------------------------------------------------------
d--3-3-3--2--xx—7p6—7/9--9-----3-3-3--2—-x-7p6—2bbbbb-------------
a--3-3-3--2--xx----------------3-3-3--2--x------------------------
e--1-1-1--0--xx----------------1-1-1--0--x------------------------
variations of this part
e---------------------------------------------------------
b-------------------------9-10-9---------------------5-----
g---------------------------------------------------------
d--3-3-3--2--xx—7p6—-7/9----------3-3-3--2--xx-7p6b—-2----
a--3-3-3--2--xx-------------------3-3-3--2--xx------------
e--1-1-1--0--xx-------------------1-1-1--0--xx------------
til’ the end
e--------------------------------------------------------14--------
b--15----15---14----14----14--------1717---17----1717-------17-----
g-----16---16----16----16----16--16-----16----16------16-------16--
d------------------------------------------------------------------
a------------------------------------------------------------------
e------------------------------------------------------------------

end.

i made a fewminor corrections. this is absolutly correct 
tabbed by jamie
false_idols_@hotmail.com
Comments