A Perfect Circle - The Package Chords & Tabs

 

The Package Chords & Tabs

A Perfect Circle Chords & Tabs

Version: 3 Type: Bass Tab 0 ratings
1 star 2 stars 3 stars 4 stars 5 stars
comments

The Package Bass Tab

   
A Perfect Circle
The Thirteenth Step

THE PACKAGE

psychoanesthesia@netscape.net

5 string bass, standard tuning

G------------------------------------------|
D------------------------------------------|
A-----7------------------------------------|
E--9--------------------7-9----------------|
B--------2--2-5--2-2---------2--2-5--2-2---|

G------------------------------------------|
D------------------------------------------|
A-----7------------------------------------|
E--9--------------------9-7----------------|
B--------2--2-5--2-2---------2--2-5--2-2---|


Other line...

[ Tab from: http://www.guitartabs.cc/tabs/a/a_perfect_circle/the_package_btab_ver_3.html ]
  A            B
G-----------|--------------|
D-----------|--------------|
A-----------|--------------|
E-----------|--------------|
B--3-3-3-2--|--2---2---2---|


Play Line A right after Maynard says "Give this to me" for whateverth time he does and
follow with Line B after you play Line A once.  Listen to the song - it's so easy you
can't not understand.

During the heavy part where you hear the intro bass line again, instead of playing fret
7 on string A, play fret 12 on string E and slide down so you can reach fret 2 on the B
string that comes right afterwards.  Also, divide that same C# right after the slide
(fret 2 on B string) into two notes.
Comments