A Perfect Circle - The Package Chords & Tabs

 

The Package Chords & Tabs

A Perfect Circle Chords & Tabs

Version: 2 Type: Bass Tab 0 ratings
1 star 2 stars 3 stars 4 stars 5 stars
comments

The Package Bass Tab

A Perfect Circle - The Package
Submitted By: Stand Alone (projectwyze13@hotmail.com)


G|------------------------------------------------------------------------
D|------------------------------------------------------------------------
A|-----------------------------0/2----------------------------------------
E|--1/4------------------------------------------------1/4----------------
B|--------2----2-5-2-2--------------2----2-5-2-2------------2----2-5-2-2--

G|------------------------------------------------------------------------
D|------------------------------------------------------------------------
A|---2\0------------------------------------------------------------------
E|------------------------------------------------------------------------
B|---------2----2-5-2-2---------------------------------------------------
             
G|------------------------------------------------------------------------
D|------------------------------------------------------------------------
A|------------------------------------------------------------------------
E|------------------------------------------------------------------------
B|-3-3-3-2------3-3-3-2------3-3-3-2-------2---2---2--------3-3-3-2-------

G|------------------------------------------------------------------------
D|------------------------------------------------------------------------
A|------------------------------------------------------------------------
E|------------------------------------------------------------------------
B|---2---2---2------3-3-3-2------2---2---2-------3-3-3-2------------------

          
[ Tab from: http://www.guitartabs.cc/tabs/a/a_perfect_circle/the_package_btab_ver_2.html ]
G|------------------------------------------------------------------------
D|------------------------------------------------------------------------
A|-----------------------------0/2----------------------------------------
E|--1/4------------------------------------------------1/4----------------
B|--------2-2---2-5-2-2--------------2-2---2-5-2-2----------2-2---2-5-2-2-

G|------------------------------------------------------------------------
D|------------------------------------------------------------------------
A|---2\0------------------------------------------------------------------
E|------------------------------------------------------------------------
B|---------2-2---2-5-2-2--------------------------------------------------

G|------------------------------------------------------------------------
D|------------------------------------------------------------------------
A|------------------------------------------------------------------------
E|------------------------------------------------------------------------
B|-3-3-3-2------3-3-3-2------3-3-3-2-------2---2---2--------3-3-3-2-------

G|------------------------------------------------------------------------
D|------------------------------------------------------------------------
A|------------------------------------------------------------------------
E|------------------------------------------------------------------------
B|---2---2---2------3-3-3-2------2---2---2-------3-3-3-2------------------
           
G|------------------------------------------------------------------------
D|------------------------------------------------------------------------
A|-----------------------------0/2----------------------------------------
E|--1/4------------------------------------------------1/4----------------
B|--------2----2-5-2-2--------------2----2-5-2-2------------2----2-5-2-2--

G|------------------------------------------------------------------------
D|------------------------------------------------------------------------
A|---2\0------------------------------------------------------------------
E|------------------------------------------------------------------------
B|---------2----2-5-2-2---------------------------------------------------
Comments