A Perfect Circle - The Package Chords & Tabs

 

The Package Chords & Tabs

A Perfect Circle Chords & Tabs

Version: 1 Type: Bass Tab 0 ratings
1 star 2 stars 3 stars 4 stars 5 stars
comments

The Package Bass Tab

this song was tabs in D tuning but is probly played in C.

G|------------------------------------|
D|------------------------------------|
A|-5-/8-------------5-\3--------------|
D|------0--3-3--0--------0--1-1--0----|      repeat
  **or {0--1-1--0}

G|-----------|
D|-----------|
A|-----------|
D|-1-1-1-0---|

[ Tab from: http://www.guitartabs.cc/tabs/a/a_perfect_circle/the_package_btab.html ]
G|------------------------------------|
D|------------------------------------|
A|-5-/8-------------5-\3--------------|
D|------0--3-3--0--------0--1-1--0----|      repeat
  **or {0--1-1--0}

these are the main 2 riffs i heard in the song. It should give you and idea on how its played.

it can also be played just on the bottom D string to add more bass like this:
whatever sounds best to you..


G|------------------------------------------------------------
D|------------------------------------------------------------
A|------------------------------------------------------------
D|-12--/15\---0---1-1-0---12--\10\---0---1-1-0----------------
Comments