A Perfect Circle - The Outsider Chords & Tabs

 

The Outsider Chords & Tabs

A Perfect Circle Chords & Tabs

Version: 3 Type: Tab 0 ratings
1 star 2 stars 3 stars 4 stars 5 stars
comments

The Outsider Tab

A Perfect Circle - The Outsider

Intro - Standard Tuning (Capo 2)
                                                                             
E||------------------|------------------|------------------|-----------------
B||------------------|------------------|------------------|-----------------
G||-------4-----4----|-------4-----4----|-------4-----4----|-------4---------
D||----------4-------|----------4-------|----------4-------|----------4------
A||--2---------------|--2---------------|--2---------------|--2----------2---
E||------------------|------------------|------------------|-----------------
                                                                            
------------------|------------------|------------------|------------------|
------------------|------------------|------------------|------------------|
-------4-----4----|-------4-----4----|-------4-----4----|-------4-----4----|
----------4-------|----------4-------|----------4-------|----------4-------|
--0---------------|--0---------------|--0---------------|--0---------------|
------------------|------------------|------------------|------------------|
             
------------||
------------||
------------||  X2
------------||
--0----2----||
------------||
[ Tab from: http://www.guitartabs.cc/tabs/a/a_perfect_circle/the_outsider_tab_ver_3.html ]
Verse
    Help me if you can...          So could you please...
E||--------------------------------------------------------------------
B||--------------------------------------------------------------------
G||--2----------------------------------2------------------------------
D||--2----------------------------------2------------------------------
A||--0----------------------------------0------------------------------
E||--------------------------------------------------------------------

Chorus
 ...Disconnect...     ...Self-Destruct...     ...One bullet...
E||--------------------------------------------------------------------
B||--------------------------------------------------------------------
G||--------------------------------------------------------------------
D||--4---------------------2-------------------------------------------
A||--2---------------------0--------------------------2----------------
E||---------------------------------------------------0----------------

 ...Disconnect...     ...Self-Destruct...     ...One bullet...
E||--------------------------------------------------------------------
B||--------------------------------------------------------------------
G||--------------------------------------------------------------------
D||--4/7/4---------------------4/7/4----------------------4/7/4--------
A||--2/5/2---------------------2/5/2----------------------2/5/2--------
E||--------------------------------------------------------------------

 ...Have his...                            ...Day to die...
E||--------------------------------------------------------------------
B||--------------------------------------------------------------------
G||--------------------------------------------------------------------
D||--------------------------------------------------------------------
A||--2------------------------------------------------5----------------
E||--0------------------------------------------------3----------------
Comments