A Perfect Circle - The Outsider Chords & Tabs

 

The Outsider Chords & Tabs

A Perfect Circle Chords & Tabs

Version: 2 Type: Tab 0 ratings
1 star 2 stars 3 stars 4 stars 5 stars
comments

The Outsider Tab

Artist:         A Perfect Circle
Title:          The Outsider
Transcribed By: Travis 
Tunning:        Standard

Intro/Verse

3)---4---4-----4---4------4---4------4----}
4)-----4---------4----------4----------4--}
5)-2---------2----------2---------2------2}

3)---4---4-----4---4------4---4-----------}
4)-----4---------4----------4-------------}
5)-0---------0-------0--------------5--4--}
6)----------------------3--------3--------}
[ Tab from: http://www.guitartabs.cc/tabs/a/a_perfect_circle/the_outsider_tab_ver_2.html ]
3)---4---4-----4---4------4---4---4-5-4h5p5-2}
4)-----4---------4----------4---4------------}
5)-2---------2----------2--------------------}

3)---4---4-----4---4-----------------4----}
4)-----4---------4-------------------4----}
5)-0---------0-------0----5------4---2----}
6)----------------------3b--3--2b--2------}

The verse is all I have right now, but I'll add on to it as I find
out what the guys playing.

E-mail me w/ corrections or anything else at...
illusion_guitarist@hotmail.com
Comments