A Perfect Circle - The Outsider Chords & Tabs

 

The Outsider Chords & Tabs

A Perfect Circle Chords & Tabs

Version: 1 Type: Tab 2 ratings
1 star 2 stars 3 stars 4 stars 5 stars
comments

The Outsider Tab

Song: the outsider
Artist: A perfect circle
Cd: thirteenth step

I'm pretty sure this is right... But its my first tab so what can I say.  This is a awesome song.  Not complete though.

Standard Tuning

intro
e----------------------------------------------------------------------
b----------------------------------------------------------------------
g------6-----6-----6----6-----6-----6-----6-----------6-----6----------
d---------6----------6-----------6-----------6-----------6-------------
a---4-----------4----------4-----------4--------4--2-------------------
e----------------------------------------------------------------------
								
e----------------------------------------------------------------------
b----------------------------------------------------------------------
g------6-----6-----6-----6-----6-----6---------------------------------
d---------6-----------6-----------6------------------------------------
a---2-----------2-----------2-----------2--4---------------------------
E----------------------------------------------------------------------
				X2

Can't tell you how they finish out the intro... 
[ Tab from: http://www.guitartabs.cc/tabs/a/a_perfect_circle/the_outsider_tab.html ]
Verse
    Help me if you can...          ...So could you please...
e----------------------------------------------------------------
b----------------------------------------------------------------
g---4--------------------------------------4---------------------
d---4--------------------------------------4---------------------
a---2--------------------------------------2---------------------
E----------------------------------------------------------------

Once again I'm at a lost how that little riff before the chorus goes.

Chorus
....Disconnect...            ...Self-destruct...        ...One Bullet...
e------------------------------------------------------------------------
b------------------------------------------------------------------------
g------------------------------------------------------------------------
d-6---------------------------4------------------------------------------
a-4---------------------------2---------------------------4--------------
E---------------------------------------------------------2--------------
				x2
Oh yeah and the second time at disconnect you go 
d--6--/9--/6
a--4--/7--/4







Same thing again but this time at the end...

Chorus
...Have his...             ....Day in time...
e----------------------------------------------------------------
b----------------------------------------------------------------
g----------------------------------------------------------------
d----------------------------------------------------------------
a--4----------------------------7--------------------------------
e--2----------------------------5--------------------------------
 
Now the verse is pretty much the same with just palm muting.  I'll right out the rest later.   It's pretty easy though... You should be able to figure it out. 

-Ron (lambda_chi529@hotmail.com)
Comments