A Perfect Circle - The Noose Chords & Tabs

 

The Noose Chords & Tabs

A Perfect Circle Chords & Tabs

Version: 3 Type: Bass Tab 0 ratings
1 star 2 stars 3 stars 4 stars 5 stars
comments

The Noose Bass Tab

   
TITLE: The noose
AUTHOR: A Perfect Circle
TUNING: G-D-A-E
TABBED BY: undesireddream


I, this is my version of this great song of a.p.c. I tried to tab the son with G D A E
tune, but it sounds ok to me... Forgive me, I think there will be some imprecision in
timing, but if you listen to the song you can easily figure it out.
Well, that's all, here's the tab!
-Undesireddream-



0:00
G||--------------------------|--------------------------|--------------------------|
D||--------------------------|--------------------------|--------------------------|
A||--6--6--6--6--6--6--6--6--|--6--6--6--6--6--6--6--6--|--6--6--6--6--6--6--6--6--|
E||--------------------------|--------------------------|--------------------------|

|--------------------------|--------------------------|--------------------------|--------------------------|
|--------------------------|--------------------------|--------------------------|--------------------------|
|--6--6--6--6--4--4--4--4--|--4--4--4--4--4--4--4--4--|--4--4--4--4--9--9--9--9--|--9--9--9--9--9--9--9--9--|
|--------------------------|--------------------------|--------------------------|--------------------------|

|--------------------------|--------------------------|--------------------------|--------------------------|
|--------------------------|--------------------------|--------------------------|--------------------------|
|--9--9--9--9--9--9--9--9--|--9--9--9--9--9--9--9--9--|--9--9--9--9--9--9--9--9--|--9--9--9--9--9--9--9--9--|
|--------------------------|--------------------------|--------------------------|--------------------------|

|--------------------------|--------------------------|--------------------------|--------------------------|
|--------------------------|--------------------------|--------------------------|--------------------------|
|--9--9--4--4--4--4--4--4--|--4--4--4--4--4--4--4--4--|--9--9--9--9--9--9--9--9--|--9--9--9--9--9--9--9--9--|
|--------------------------|--------------------------|--------------------------|--------------------------|

|--------------------------|--------------------------|
|--------------------------|--------------------------|
|--9--9--9--9--9--9--9--9--|--9--9--9--9--9--9--9--9--|
|--------------------------|--------------------------|

1:22
|----------------------|
|----------------------|
|--6----6----6----6----|
|----------------------|

|----------------------|----------------------|----------------------|----------------------|
|----------------------|----------------------|----------------------|----------------------|
|--6----6----6----6----|--4----4----4----4----|--4----4----4----4----|--9----9----9----9----|
|----------------------|----------------------|----------------------|----------------------|

|----------------------|----------------------|----------------------|----------------------|
|----------------------|----------------------|----------------------|----------------------|
|--9----9----9----9----|--9----9----9----9----|--9----9----9----9----|--6----6----6----6----|
|----------------------|----------------------|----------------------|----------------------|

|----------------------|----------------------|----------------------|----------------------|
|----------------------|----------------------|----------------------|----------------------|
|--6----6----6----6----|--4----4----4----4----|--4----4----4----4----|----------------------|
|----------------------|----------------------|----------------------|--2----2----2----2----|

|----------------------|----------------------|----------------------|
|----------------------|----------------------|----------------------|
|----------------------|----------------------|----------------------|
|--2----2----2----2----|--4----4----4----4----|--4----4----4----4

No bass from 1:52 to 2:48

2:48
|---------------------|
|--4------4--4--------|
|---------------------|

|-------------------|---------------------|-------------------|---------------------|-------------------|
|--4----------------|--6------6--6--------|--6----------------|---------------------|-------------------|
|-------------------|---------------------|-------------------|--6------6--6--------|--6----------------|
|-------------------|---------------------|-------------------|---------------------|-------------------|

|----------------------|-------------------|---------------------|---------------------|---------------------|
|--13------------------|-------------------|---------------------|---------------------|---------------------|
|----------6--6--------|--6----------------|--6------6--6--------|--6------6--6--------|--4------4--4--------|
|----------------------|-------------------|---------------------|---------------------|---------------------|
[ Tab from: http://www.guitartabs.cc/tabs/a/a_perfect_circle/the_noose_btab_ver_3.html ]
|---------------------|
|---------------------|
|--4------4--4--------|
|---------------------|

3:11 (....amends...)
|----------------------|----------------------|----------------------|
|-4----4----4----4-----|--4----4----4----4----|--4----4----4----4----|
|----------------------|----------------------|----------------------|
|----------------------|----------------------|----------------------|

|----------------------|---------------------|---------------------|---------------------|
|--4----4----4----4----|---------------------|---------------------|---------------------|
|----------------------|--6------6--6--------|--6------6--6--------|--4------4--4--------|
|----------------------|---------------------|---------------------|---------------------|

|---------------------|----------------------|----------------------|----------------------|
|---------------------|--4----4----4----4----|--4----4----4----4----|--6----6----6----6----|
|--4------4--4--------|----------------------|----------------------|----------------------|
|---------------------|----------------------|----------------------|----------------------|

|----------------------|
|--6----6----6----6----|
|----------------------|
|----------------------|

3:34 (...with your halo...)
|--------------------------|--------------------------|--------------------------|
|--------------------------|--------------------------|--------------------------|
|--6--6--6--6--6--6--6--6--|--6--6--6--6--6--6--6--6--|--4--4--4--4--4--4--4--4--|
|--------------------------|--------------------------|--------------------------|

|--------------------------|--------------------------|--------------------------|--------------------------|
|--------------------------|--4--4--4--4--4--4--4--4--|--4--4--4--4--4--4--4--4--|--4--4--4--4--4--4--4--4--|
|--4--4--4--4--4--4--4--4--|--------------------------|--------------------------|--------------------------|
|--------------------------|--------------------------|--------------------------|--------------------------|

|--------------------------|--------------------------|--------------------------|--------------------------|
|--4--4--4--4--4--4--4--4--|--------------------------|--------------------------|--------------------------|
|--------------------------|--6--6--6--6--6--6--6--6--|--6--6--6--6--6--6--6--6--|--4--4--4--4--4--4--4--4--|
|--------------------------|--------------------------|--------------------------|--------------------------|

|--------------------------|--------------------------|--------------------------|--------------------------|
|--------------------------|--4--4--4--4--4--4--4--4--|--4--4--4--4--4--4--4--4--|--6--6--6--6--6--6--6--6--|
|--4--4--4--4--4--4--4--4--|--------------------------|--------------------------|--------------------------|
|--------------------------|--------------------------|--------------------------|--------------------------|

|--------------------------|--------------------------|--------------------------|--------------------------|
|--6--6--6--6--6--6--6--6--|--------------------------|--------------------------|--------------------------|
|--------------------------|--6--6--6--6--6--6--6--6--|--6--6--6--6--6--6--6--6--|--4--4--4--4--4--4--4--4--|
|--------------------------|--------------------------|--------------------------|--------------------------|

|--------------------------|--------------------------|--------------------------|--------------------------|
|--------------------------|--4--4--4--4--4--4--4--4--|--4--4--4--4--4--4--4--4--|--4--4--4--4--4--4--4--4--|
|--4--4--4--4--4--4--4--4--|--------------------------|--------------------------|--------------------------|
|--------------------------|--------------------------|--------------------------|--------------------------|

|--------------------------|--------------------------|--------------------------|--------------------------|
|--4--4--4--4--4--4--4--4--|--------------------------|--------------------------|--------------------------|
|--------------------------|--6--6--6--6--6--6--6--6--|--6--6--6--6--6--6--6--6--|--4--4--4--4--4--4--4--4--|
|--------------------------|--------------------------|--------------------------|--------------------------|

|--------------------------|--------------------------|--------------------------|--------------------------|
|--------------------------|--4--4--4--4--4--4--4--4--|--4--4--4--4--4--4--4--4--|--6--6--6--6--6--6--6--6--|
|--4--4--4--4--4--4--4--4--|--------------------------|--------------------------|--------------------------|
|--------------------------|--------------------------|--------------------------|--------------------------|

|--------------------------|
|--6--6--6--6--6--6--6--6--|
|--------------------------|
|--------------------------|

That's all, hope you'll enjoy (and rate) it!
Comments