A Perfect Circle - The Noose Chords & Tabs

 

The Noose Chords & Tabs

A Perfect Circle Chords & Tabs

Version: 2 Type: Bass Tab 0 ratings
1 star 2 stars 3 stars 4 stars 5 stars
comments

The Noose Bass Tab

I have made this from scratch. Im a guitarist but i like bass tabs as well
so if you dont like it, make it better and send it in.

Email: Jumphazard@hotmail.com
tabbed: Arctype
Artist: Perfect Circle
Track: The Noose

INTRO  (0:00)               (0:06)
G----------------------------------------|
D----------------------------------------|  Faint
F#---------------------------------------|  
C#-----2222222222222222222--0000000000---|
       
       (0:10)
G----------------------------------------|
D----------------------------------------|    
F#---------------------------------------|   
C#-----2222222222222222222222222222222---|

      (0:21)    (0:24) 
G----------------------------------------|
D----------------------------------------|    
F#---------------------------------------|  
C#-----00000000-2222222222222222222222---|


verse (0:32)  
G----------------------------------------|
D----------------------------------------|    i like to play this
F#---------------------------------------|    on the bass (palm muted)
C#-----9-9-----------7-7----------5-5----|

      (0:47)
G----------------------------------------|
D----------------------------------------|    
F#---------------------------------------|  
C#-----9-9-----------5-5----------7-7----|

PRE CHORUS
G----------------------------------------|
D----------------------------------------|    
F#---------------------------------------|  
C#-----999-----------7-7-----------2-2---|


CHORUS 1
    (1:22)
G--------------------------------------------------------------------|
D--------------------------------------------------------------------| 
A--------------------------------------------------------------------| 
D----2222222222222222000000000000000055555555555555555555555555555555| Palm mute

G--------------------------------------------------------------------|
D--------------------------------------------------------------------| 
A--------------------------------------------------------------------| 
D----2222222222222222000000000000000055555555555555557777777777777777|


verse 2 
     (1:52)  
G-----------------------------------------|
D-----------------------------------------|  
F#----------------------------------------|    
C#----7-9-------555------5557-------557---|
[ Tab from: http://www.guitartabs.cc/tabs/a/a_perfect_circle/the_noose_btab_ver_2.html ]
G-----------------------------------------|
D-----------------------------------------|  
F#----------------------------------------|    
C#----7-9-------555------5557-------557---|

G-----------------------------------------|
D-----------------------------------------|  
F#----------------------------------------|    
C#----7-9-------555------5557-------557---|

G-----------------------------------------|
D-----------------------------------------|  
F#----------------------------------------|    
C#---7779-------555------222-------2---2--|

G-----------------------------------------|
D-----------------------------------------|  
F#----------------------------------------|    
C#----2----2----2-------------------------|

PRE CHORUS
     (2:50)
G---------------------------------------------------------|
D---------------------------------------------------------|  
F#--------------------------------------------------------|    
C#-5-55--55-5--5-7-77--77-7--7-2-22--22-2/9/2-22--22-2--2-|


CHORUS 2
  (3:04)
G---------------------------------------------------------|    
D---------------------------------------------------------|   
F#--------------------------------------------------------|
C#-2-22-22-22-20-00-00-00-05-55-55-55-55-55-55-55-5h7h0---|

G---------------------------------------------------------|    
D---------------------------------------------------------|   
F#--------------------------------------------------------|
C#-2-22-22-22-20-00-00-00-05-55-55-55-57-77-77-77-77-7----|

OUTRO
 (3:34)
G---------------------------------------------------------|    
D---------------------------------------------------------|   
F#--------------------------------------------------------|
C#-2-22-22-22-20-00-00-00-05-55-55-55-55-55-55-55-55-5----|

G---------------------------------------------------------|    
D---------------------------------------------------------|   
F#--------------------------------------------------------|
C#-2-22-22-22-20-00-00-00-05-55-55-55-57-77-77-77-7h9h0---|

G---------------------------------------------------------|    
D---------------------------------------------------------|   
F#--------------------------------------------------------|
C#-2-22-22-22-20-00-00-00-05-55-55-55-55-55-55-55-5h7h0---|

G---------------------------------------------------------|    
D---------------------------------------------------------|   
F#--------------------------------------------------------|
C#-2-22-22-22-20-00-00-00-05-55-55-55-57-7----------------|

Enjoy!
Feel free to send me 'Constructive' Criticism
Comments