A Perfect Circle - The Hollow Chords & Tabs

 

The Hollow Chords & Tabs

A Perfect Circle Chords & Tabs

Version: 3 Type: Tab 0 ratings
1 star 2 stars 3 stars 4 stars 5 stars
comments

The Hollow Tab

   
The Hollow-A Perfect Circle
Mer De Noms

tuned down: C# F# B E G# C#


gtr 1 w/ delay

e-----------------------------------------------------------------
b-9-----9-9-9-912-1212121212-121212-1212-7/9--9-9---9-9--9--------
g-x-----x-x-x-x-x--x-x-x-x-x--x-x-x--x-x-x-x--x-x---x-x--x--------
d-6-----6-6-6-6/9--9-9-9-9-9--9-9-9--9-9-4/6--6-6---6-6--6--------
a-----------------------------------------------------------------
e-----------------------------------------------------------------

gtr 2 fig 1.

e-----------------------------------------------------------------
b-----------------------------------------------------------------
g-----------------------------------------------------------------
d-----------------------------------------------------------------
a11-11-x11\9-9--9-9\-x-x-4--4-x-x-2------411--1111\9--9-x-x-2-2---
e-9--9-x-9\7-7--7-7\-x-x-2--2-x-x-0--2p0-2/9---9-9\7--7-x-x-0-0---

gtr 1. w/ delay

e-----------------------------------------------------------------
b-5--5-5/9-9---9-9-9-9111111-11111111/13-1311--5---9--9-9-9--9----
g-x--x-x-x-x---x-x-x-x-x-x-x--x-x-x-x-x--x--x--x---x--x-x-x--x----
d-2--2-2/6-6---6-6-6-6/9-9-9--9-9-9-9/11-11-9--2---6--6-6-6--6----
a-----------------------------------------------------------------
e-----------------------------------------------------------------

gtr 2.

e-----------------------------------------------------------------
b-----------------------------------------------------------------
g-----------------------------------------------------------------
d-----------------------------------------------------------------
a-x-x-9--9--911-x1111\9-9--9--x-x-4--4--4------4---411-1111\9-9---
e-x-x-7--7--7/9-x-9-9\7-7--7--x-x-2--2--2--0-0-2p0-2/9--9-9\7-7---

gtr 1/ w/ delay

e------------------------
b-9--9----9-9--9--9------
g-x--x----x-x--x--x------
d-6--6----6-6--6--6------
a------------------------
e------------------------

gtr 2.

e------------------------
b------------------------
g------------------------
d------------------------
a-x-x-2--2--x-x-9--9-----
e-x-x-0--0--x-x-7--7-----

verse 1 x4 riff a w/ ring modulator   ...run, desire,
run.....

e-------------7-----------------------7---------------
b---------5-7---5-4---------------5-7---5-4-----------
g-------6-----------------------6---------------------
d-------------------6------------------------6--------
a-4-4-4---------------7-6-4-4-4----------------7-6----
e-----------------------------------------------------

chorus:( gtrs not lined up )

gtr 1 w/ delay

e-16-19-16--------------------------------------------------------
b----------16-17-16-----------------------------------------------
g-------------------16--------------------------------------------
d----------------------18------------------------16---18----------
a-------------------------19-19-18-18-18-18--19-------------------
e-----------------------------------------------------------------

gtr 2.

e-----------------------------------------------------------------
b-----------------------------------------------------------------
g-----------------------------------------------------------------
d-----------------------------------------------------------------
a-7---7--7-6---6-6-6-2---7-7---2-4/7--7-7-6-6--6--2-2-2-x-x-9-9-2-
e-5---5--5-4---4-4-4-0-----------2/5--5-5-4-4--4--0-0-0-x-x-7-7-0-

gtr 1. w/ delay

e-----------------------------------------------------------------
b-----------------------------------------------------------------
g-----13--13-13------------------16-16-14--13--------13-----------
d-11---------11--11-11-11/14-14---------------11--11-11--11-11----
a-----------------------------------------------------------------
e-----------------------------------------------------------------

gtr 2.
[ Tab from: http://www.guitartabs.cc/tabs/a/a_perfect_circle/the_hollow_tab_ver_3.html ]
e-----------------------------------------------------------------
b-----------------------------------------------------------------
g-----------------------------------------------------------------
d-----------------------------------------------------------------
a-7---7--7-6--6-6-6-2--7-7--2--4/7--7-7-6--6-6-6/9--9-9---9-------
e-5---5--5-4--4-4-4-0----------2/5--5-5-4--4-4-4/7--7-7---7-------

gtr 1. w/ delay

e-----------------------------------------------------------------
b-----------------------------------------------------------------
g-----------16-16-16--16/18-----------13--13-13-------------------
d-11/14-14------------------11-11--11-----------11--11-11/13--13--
a-----------------------------------------------------------------
e-----------------------------------------------------------------

verse 2 w/ fig 1.

riff c x4

e--------------14--------------------------14---------------------
b-----------12----12--------------------12----12------------------
g---------9----------9----------------9----------9----------------
d------13--------------13----------13--------------13-------------
a---11--------------------11----11--------------------11----------
e-9---------------------------9-----------------------------------

Interlude:

e----------------------------------------------------------7--7---
b----------------------------------------------------------x--x---
g----------------------------------------------------------4--4---
d-----------------------------------------------------------------
a-2---let-ring----------------------------------------------------
e-0---------------------------------------------------------------

e-7--7-7-7-7-7/9-9--9-911-11-11-1111111111/13-13-13-13-13-13-13-13
b-x--x-x-x-x-x-x-x--x-x----x--x--x-x-x-x-x-x--x--x--x--x--x--x--x-
g-4--4-4-4-4-4/6-6--6-6/8--8--8--8-8-8-8-8/11-11-11-11-11-11-11-11
d-----------------------------------------------------------------
a-----------------------------------------------------------------
e-----------------------------------------------------------------

e-14-16-9--9-9-911--7--7------------------------------------------
b-x--x--x--x-x-x-x--x--x------------------------------------------
g-11/13-6--6-6-6/8--4--4------------------------------------------
d-----------------------------------------------------------------
a-----------------------------------------------------------------
e-----------------------------------------------------------------

Bridge: ...cause itís time to bring the fire down.......

gtr 1. and 2.

e-------------------------------------0--0------------------------
b-------------------------------------0--0------------------------
g-------8----------6----------------------------------------------
d-----6----------4-----------6------------------------------------
a-2/4---------2------------4--------------------------------------
e-----------0---------0-2--------0-0------------------------------

interlude

e-----------------------------------------------------------------
b-----------------------------------------------------------------
g-----------------------------------------------------------------
d-6-6-6-6-6-6-8-8-8-8-8-8-9-9-9-9-9-2-2--2--2---------------------
a-4-4-4-4-4-4-6-6-6-6-6-6-7-7-7-7-7-0-0--0--0---------------------
e-----------------------------------------------------------------

gtr 2.

e-----------------------------------------------------------------
b-----------------------------------14-14-14-141212\7--7-7-7-9-9--
g------------------------------------x-x--x--x--x-x-x--x-x-x-x-x--
d-----------------------------------11-11-11-11\9-9\4--4-4-4-6-6--
a-----------------------------------------------------------------
e-----------------------------------------------------------------

gtr 2.



e-----------------------------------------------------------------
b-9-9-9-9-9-5-5-5-5-5-5/7-4--4--4---------------------------------
g-x-x-x-x-x-x-x-x-x-x-x-x-x--x--x-6-------------------------------
d-6-6-6-6-6-2-2-2-2-2-2/4-1--1--1-x-------------------------------
a---------------------------------4-------------------------------
e-----------------------------------------------------------------

outro chorus

thatís all
for the most part the time signature is 6/8 all the way through

trevor jones
timmy91199@yahoo.ca
Comments