A Perfect Circle - The Hollow Chords & Tabs

 

The Hollow Chords & Tabs

A Perfect Circle Chords & Tabs

Version: 1 Type: Tab 0 ratings
1 star 2 stars 3 stars 4 stars 5 stars
comments

The Hollow Tab

   
A Perfect Circle
The Hollow
Tabbed by Pich

Tuning- C# F# B E G# C#

Intro

Gtr.1

|--------------------------------------|
|--------------------------------------|
|--------------------------------------|
|-11-11-11-11/9-9-9-9--2-2-2-2-2h4-4p2-|
|-11-11-11-11/9-9-9-9--2-2-2-2-2h4-4p2-|
|-9--9--9--9-/7-7-7-7--0-0-0-0-0h2-2p0-|

Gtr.2

|-------------------------------------------|
|-------------------------------------------|
|-13-13-13-13-13/16-16-16-16-16-16-16-16-16-|
|--x--x--x--x--x--x--x--x--x--x--x--x--x--x-|
|-11-11-11-11-11/14-14-14-14-14-14-14-14-14-|
|-------------------------------------------|

|------------------------------------------|
|------------------------------------------|
|-13-13-13-13-13-13-13-13-13-13/9-9-9-9-9--|
|--x--x--x--x--x--x--x--x--x--x-x-x-x-x-x--|
|-11-11-11-11-11-11-11-11-11-11/7-7-7-7-7--|
|------------------------------------------|

|---------------------------------------------|
|---------------------------------------------|
|-13-13-13-13-13/16-16-16-16-16-/18-18\-16-16-|
|--x--x--x--x--x--x--x--x--x--x---x--x---x--x-|
|-11-11-11-11-11/14-14-14-14-14-/16-16\-14-14-|
|---------------------------------------------|

|-------------------------------------------|
|-------------------------------------------|
|-13-13-13-13-13-13-13-13-13-13-13-13-13-13-|
|--x--x--x--x--x--x--x--x--x--x--x--x--x--x-|
|-11-11-11-11-11-11-11-11-11-11-11-11-11-11-|
|-------------------------------------------|

Verse

|---------------------|
|---------------19/17-|
|-----------16--------|
|-11-11--14-----------|
|-11-11---------------|
|-9--9----------------|

*They use some sort of pedal

Chorus

Gtr.1

|---------------------------------|
|---------------------------------|
|---------------------------------|
|-7-7-7-7-6-6-6-6-2-2-2-2-2-2-2-2-|
|-7-7-7-7-6-6-6-6-2-2-2-2-2-2-2-2-|
|-5-5-5-5-4-4-4-4-0-0-0-0-0-0-0-0-|

|--------------------------------------------------------|
|----19p17/16h17p16/14/12--------------------------------|
|-16---------------------------13~----16----16-16/14-14--|
|-------------------------14-13----14----14--------------|
|--------------------------------------------------------|
|--------------------------------------------------------|
digital delay, this whole part is delayed

Verse 2

Gtr.1

|--------------------------------------|
|--------------------------------------|
|--------------------------------------|
|-11-11-11-11/9-9-9-9--2-2-2-2-2h4-4p2-|
|-11-11-11-11/9-9-9-9--2-2-2-2-2h4-4p2-|
|-9--9--9--9-/7-7-7-7--0-0-0-0-0h2-2p0-|

                      p.m......
Gtr.2
[ Tab from: http://www.guitartabs.cc/tabs/a/a_perfect_circle/the_hollow_tab.html ]
|---------------------|
|---------------19/17-|
|-----------16--------|
|-11-11--14-----------|
|-11-11---------------|
|-9--9----------------|

Interlude

Gtr.1

|---------------------------------------------|
|---------------------------------------------|
|---------------------------------------------|
|-2--6/8-8-8-8\6-6-6-6--2-2/9-9-9/4-4-4-4-6---|
|-2---------------------2-2/x-x-x-x-x-x-x-x---|
|-0---------------------0-0/7-7-7/2-2-2-2/4-0-|

Gtr.2

|---------------------------------------------------------------------|
|-------121212121212/14-14-14-14-14/16-16-16-16-16-16-16-16-16-16-16/-|
|--------x-x-x-x-x-x--x--x--x--x--x--x--x--x--x--x--x--x--x--x--x--x--|
|--9-9-9-9-9-9-9-9-9/11-11-11-11-11/13-13-13-13-13-13-13-13-13-13-13/-|
|---------------------------------------------------------------------|
|---------------------------------------------------------------------|

|---------------------------------------------|
|19-19-19-19-19-19-19-19-19/21\14-14-14-14-14-|
|-x--x--x--x--x--x--x--x--x--x--x--x--x--x--x-|
|16-16-16-16-16-16-16-16-16/18\11-11-11-11-11-|
|---------------------------------------------|
|---------------------------------------------|

Chorus 2

|-----------------------------------------|
|-----------------------------------------|
|-----------------------------------------|
|-11-11-11-11-9-9-9-9-9-4-4-4-4-2-2-2-2-2-|
|-11-11-11-11-9-9-9-9-9-4-4-4-4-2-2-2-2-2-|
|-9--9--9--9--7-7-7-7-7-2-2-2-2-0-0-0-0-0-|

Bridge

Gtr.1

|--------------------------------------------------------------|
|--------------------------------------------------------------|
|--------------------------------------------------------------|
|-11-11-11-11-11-11/13-13-13-13-13-13/14-14-14-14-14-14--7-7-7-|
|-11-11-11-11-11-11/13-13-13-13-13-13/14-14-14-14-14-14--7-7-7-|
|-9--9--9--9--9--9-/11-11-11-11-11-11/12-12-12-12-12-12--5-5-5-|
  p.m.............. p.m.............. p.m..............

Gtr.2

|-------------------------------------------------------------|
|-------------------------------------------------------------|
|18-18-18/16-16/11-11-11-11/1313131313/9-9-9/11/8-8-8/(9)/(6)-|
|-x--x--x--x--x--x--x--x--x--x-x-x-x-x-x-x-x--x-x-x-x--x---x--|
|16-16-16/14-14/ 9--9--9--9/1111111111/7-7-7/ 9/6-6-6/(7)/(4)-|
|-------------------------------------------------------------|

Chorus 3/Outro

Gtr.1

|---------------------------------|
|---------------------------------|
|---------------------------------|
|-7-7-7-7-6-6-6-6-2-2-2-2-2-2-2-2-|
|-7-7-7-7-6-6-6-6-2-2-2-2-2-2-2-2-|
|-5-5-5-5-4-4-4-4-0-0-0-0-0-0-0-0-|

Gtr.2- Same delayed effects as first Chorus

End


Email me if you think this is wrong! hoju_10@hotmail.com



Comments