A Perfect Circle - Rose Chords & Tabs

 

Rose Chords & Tabs

A Perfect Circle Chords & Tabs

Version: 3 Type: Tab 0 ratings
1 star 2 stars 3 stars 4 stars 5 stars
comments

Rose Tab

   
Band- A Perfect Circle
Song- Rose

Gtr I (Db Gb B E Ab Db) - 'Acoustic (w/delay)'
Gtr II (Db Gb B E Ab Db) - 'Synth. Arranged for Guitar (distorted bass live)'
Gtr III (Db Gb B E Ab Db) - 'Distortion (w/DigiTech Whammy) *Set for one octave above'
Gtr IV (Db Gb B E Ab Db) - 'Distortion'

 Intro
  Moderately Q=120
  Dadd4
 3/4
  Gtr I
  E E Q  Q    E E Q  Q    E E Q  Q    E E E E E E
|--------0--|--------0--|--------0--|-------------||
|-----7-----|-----7-----|-----7-----|-----7-------||
|---0-------|---0-------|---0-------|---0-------0-||
|-4---------|-4---------|-4---------|-4-------4---||
|-----------|-----------|-----------|-------5-----||
|-----------|-----------|-----------|-------------||


   Verse
    Gtr I
    E E  Q  Q     E E  Q  Q     E E  Q  Q     E E  E E +Q
||----------0---|---------0---|---------0---|---------------|
||o------7------|------7------|------7------|------7--------|
||----0---------|---0---------|---0---------|---0-----------|
||--4-----------|-4-----------|-4-----------|-4-------------|
||o-------------|-------------|-------------|--------5-(5)--|
||--------------|-------------|-------------|---------------|
|
|   Gtr II
|   Q    Q  Q     Q    Q  Q     Q    Q  Q     Q    E E +Q
||--------------|-------------|-------------|---------------|
||o-------------|-------------|-------------|---------------|
||--------------|-------------|-------------|---------------|
||----------7\--|---------9\--|---------7\--|-----/4--------|
||o-----/9------|-----/9------|-----/9------|--------5-(5)--|
||--2-----------|-2-----------|-2-----------|-2-------------|


  E E  Q  Q     E E  Q  Q     E E  Q  Q     E E  E E +Q
|---------0---|---------0---|---------0---|---------------|
|------7------|------7------|------7------|------7--------|
|---0---------|---0---------|---0---------|---0-----------|
|-4-----------|-4-----------|-4-----------|-4-------------|
|-------------|-------------|-------------|--------5-(5)--|
|-------------|-------------|-------------|---------------|
|
| Q    Q  Q     Q    Q  Q     Q    Q  Q     Q    E E +Q
|-------------|-------------|-------------|---------------|
|-------------|-------------|-------------|---------------|
|-------------|-------------|-------------|---------------|
|---------7\--|---------9\--|---------7\--|-----/4--------|
|-----/9------|-----/9------|-----/9------|--------5-(5)--|
|-2-----------|-2-----------|-2-----------|-2-------------|


  G
  Gtr II
  Q   Q    +E   E   Q   Q    +E   E   Q   Q    +E   E   Q   Q      +Q
|-----------------|-----------------|-----------------|------------------|
|-----------------|-----------------|-----------------|------------------|
|-----------------|-----------------|-----------------|------------------|
|-----------------|-----------------|-----------------|------------------|
|-----------------|-----------------|-----------------|------------------|
|-3--<3>--(<3>)---|-3--<3>--(<3>)---|-3--<3>--(<3>)---|-3--<3>b4--(<3>)--|


  Q   Q    +E   E   Q   Q    +E   E   Q   Q    +E   E   Q   Q   Q
|-----------------|-----------------|-----------------|------------|
|-----------------|-----------------|-----------------|------------|
|-----------------|-----------------|-----------------|------------|
|-----------------|-----------------|-----------------|------------|
|-----------------|-----------------|-----------------|------------|
|-3--<3>--(<3>)---|-3--<3>--(<3>)---|-3--<3>--(<3>)---|-3--<3>--2--|


  Dadd4
  Gtr I
  E E E E +Q     E E E E +Q     E E E E +Q
|--------------|--------------|--------------|
|-------5-(5)--|-------5-(5)--|-------5-(5)--|
|-----0--------|-----0--------|-----0--------|
|---4----------|---4----------|---4----------|
|-5------------|-5------------|-5------------|
|--------------|--------------|--------------|
|
| Gtr II
| W              W              W
|--------------|--------------|--------------|
|--------------|--------------|--------------|
|--------------|--------------|--------------|
|--------------|--------------|--------------|
|--------------|--------------|--------------|
|--------------|--------------|--------------|


 1.                 2.
 4/4                4/4
  E E Q  E E E E     E E Q  E E E E
|-----------------||----------------||
|--------5-------o||--------5-------||
|-----0----0------||-----0----0-----||
|---4--------4----||---4--------4---||
|-5------------5-o||-5------------5-||
|-----------------||----------------||
|
|                Gtr III
| W                  H      Q   Q
|-----------------||----------------||
|----------------o||------------2S==||
|-----------------||----------------||
|-----------------||----------------||
|----------------o||----------------||
|-----------------||----------------||


 Guitar Solo
  F#sus4
 3/4                                                   4/4
   E  E E E +Q      E  E E E +Q      E  E  E  E +Q       Q   Q      E  E  E E
|----------------|----------------|-------------------|-----------------------|
|---------0-(0)--|---------0-(0)--|-----------0-(0)---|-------------0---------|
|-------4--------|-------4--------|--------4----------|------4---------4------|
|-----4----------|-----4----------|-----4-------------|-------------------4---|
|----------------|----------------|-------------------|-----------------------|
|--2-------------|--2-------------|--2----------------|--2------------------0-|
|
|  H.               H.               E  E  E  E  E  E    Q.     E  +Q     Q
|----------------|----------------|-------------------|-----------------------|
|-14-------------|-14-------------|-14h15s19s15-14h15-|-14--------------------|
|----------------|----------------|-------------------|--------16-(16)---16---|
|----------------|----------------|-------------------|-----------------------|
|----------------|----------------|-------------------|-----------------------|
|----------------|----------------|-------------------|-----------------------|


 3/4                                                   4/4
   E  E E E +Q      E  E E E +Q      E  E  E  E +Q       Q   Q      E  E  E E
|----------------|----------------|-------------------|-----------------------|
|---------0-(0)--|---------0-(0)--|-----------0-(0)---|-------------0---------|
|-------4--------|-------4--------|--------4----------|------4---------4------|
|-----4----------|-----4----------|-----4-------------|-------------------4---|
|----------------|----------------|-------------------|-----------------------|
|--2-------------|--2-------------|--2----------------|--2------------------0-|
|
|  H.               H.               E  E  E  E  E  E    Q.     E  +Q     Q
|----------------|----------------|-------------------|-----------------------|
|-14-------------|-14-------------|-14h15s19s15-14h15-|-14--------------------|
|----------------|----------------|-------------------|--------16-(16)---16---|
|----------------|----------------|-------------------|-----------------------|
|----------------|----------------|-------------------|-----------------------|
|----------------|----------------|-------------------|-----------------------|


  Dadd4
 3/4
   E  E E  E  +Q      E  E E  E  +Q
|------------------|------------------|
|----------5--(5)--|----------5--(5)--|
|-------0----------|-------0----------|
|-----4------------|-----4------------|
|--5---------------|--5---------------|
|------------------|------------------|
|
|  Q.      E  +Q      Q.      E  +Q
|-14---------------|-14---------------|
|---------17-(17)--|---------17-(17)--|
|------------------|------------------|
|------------------|------------------|
|------------------|------------------|
|------------------|------------------|


                    4/4
   E  E E  E  +Q      E  E  Q     E  E  E E
|------------------|------------------------||
|----------5--(5)--|--------------5---------||
|-------0----------|--------0--------0------||
|-----4------------|-----4--------------4---||
|--5---------------|--5-------------------5-||
|------------------|------------------------||
|
|  Q.      E  +Q      E  E  E  E  E  E  Q
|-14---------------|-14h15p14---------------||
|---------17-(17)--|----------17p15p14-14---||
|------------------|------------------------||
|------------------|------------------------||
|------------------|------------------------||
|------------------|------------------------||


 Chorus
  N.C.(F#m)
 3/4
  Gtr II
    Q    Q  Q       Q    Q  Q       Q    Q  Q       Q    E E +Q
|---------------|---------------|---------------|-----------------|
|---------------|---------------|---------------|-----------------|
|---------------|---------------|---------------|-----------------|
|-----------7\--|-----------9\--|-----------7\--|-------/4--------|
|-------/9------|-------/9------|-------/9------|----------5-(5)--|
|---2-----------|---2-----------|---2-----------|---2-------------|
|
| Gtr III
|  +H.             +H.             +H.             +H.
|---------------|---------------|---------------|-----------------|
|-(14)----------|-(14)----------|-(14)----------|-(14)------------|
|---------------|---------------|---------------|-----------------|
|---------------|---------------|---------------|-----------------|
|---------------|---------------|---------------|-----------------|
|---------------|---------------|---------------|-----------------|

[ Tab from: http://www.guitartabs.cc/tabs/a/a_perfect_circle/rose_tab_ver_3.html ]
  Gtr II
  Q   Q  Q     Q   Q  Q     Q   Q  Q     Q   E E +Q
|------------|------------|------------|--------------|
|------------|------------|------------|--------------|
|------------|------------|------------|--------------|
|--------7\--|--------9\--|--------7\--|----/4--------|
|----/9------|----/9------|----/9------|-------5-(5)--|
|-2----------|-2----------|-2----------|-2------------|


      F#5 A5         F#5 B5         F#5 A5         F#5D5
  Gtr II
  Q    Q   Q     Q    Q   Q     Q    Q   Q     Q    E E +Q
|--------------|--------------|--------------|---------------|
|--------------|--------------|--------------|---------------|
|--------------|--------------|--------------|---------------|
|----------7\--|----------9\--|----------7\--|-----/4--------|
|-----/9-------|-----/9-------|-----/9-------|--------5-(5)--|
|-2------------|-2------------|-2------------|-2-------------|
|
| Gtr IV
| E E  Q   Q     E E  Q   Q     E E  Q   Q     E E  E E  Q
|--------------|--------------|--------------|---------------|
|--------------|--------------|--------------|---------------|
|--------------|--------------|--------------|---------------|
|-x-x-11--14\--|-x-x-11--16\--|-x-x-11--14\--|-x-x-11s7--7\--|
|-x-x--9--12\--|-x-x--9--14\--|-x-x--9--12\--|-x-x--9s5--5\--|
|--------------|--------------|--------------|---------------|


      F#5 A5         F#5 B5         F#5 A5         F#5D5
  Gtr IV
  E E  Q   Q     E E  Q   Q     E E  Q   Q     E E  E E Q
|--------------|--------------|--------------|--------------|
|--------------|--------------|--------------|--------------|
|--------------|--------------|--------------|--------------|
|-x-x-11--14\--|-x-x-11--16\--|-x-x-11--14\--|-x-x-11s7-7\--|
|-x-x--9--12\--|-x-x--9--14\--|-x-x--9--12\--|-x-x--9s5-5\--|
|--------------|--------------|--------------|--------------|


  N.C.                                              D5
  PM----------------------------------------------|
  E E E E E E   E E E E E E   E E E E E E   E E E E Q
|-------------|-------------|-------------|------------|
|-------------|-------------|-------------|------------|
|-------------|-------------|-------------|---------7--|
|---------7-7-|---------9-9-|---------7-7-|---------7--|
|-9-9-9-9-----|-7-9-9-9-----|-9-9-9-9-----|-7-9-9-5-5--|
|-------------|-------------|-------------|------------|


  N.C.
  S S S S S S S S S S S S   S S S S S S S S S S S S   S S S S S S S S S S S S
|-------------------------|-------------------------|-------------------------|
|-------------------------|-------------------------|-------------------------|
|-------------------------|-------------------------|-------------------------|
|-----------------7-7-7-7-|-----------------9-9-9-9-|-7---------------7-7-7-7-|
|-7s9-9-9-9-9-9-9---------|-9-9-9-9-9-9-9-9---------|---9-9-9-9-9-9-9---------|
|-------------------------|-------------------------|-------------------------|


                                G
  Gtr IV
                                    ~~~~~~~~~~
  S S S S S  S  S  S  S  S  E   Q   Q    +E   E
|-----------------------------|-----7----(7)----|
|-----------------------------|-----------------|
|-----------------------------|-----------------|
|-7-9-9-9-9-11-14-14-14-14-12-|-----------------|
|-----------------------------|-----------------|
|-----------------------------|-3-------------0-|
|
| Gtr II
| W                             Q   Q    +E   E
|-----------------------------|-----------------|
|-----------------------------|-----------------|
|-----------------------------|-----------------|
|-----------------------------|-----------------|
|-----------------------------|-----------------|
|-----------------------------|-3--<3>--(<3>)---|


      ~~~~~~~~~~        ~~~~~~~~~~
  Q   Q    +E   E   Q   Q    +E   E
|-----7----(7)----|-----7----(7)-----|
|-----------------|------------------|
|-----------------|------------------|
|-----------------|------------------|
|-----------------|------------------|
|-3-------------0-|-3-------------0--|
|
| Q   Q    +E   E   Q   Q    +E   E
|-----------------|------------------|
|-----------------|------------------|
|-----------------|------------------|
|-----------------|------------------|
|-----------------|------------------|
|-3--<3>--(<3>)---|-3--<3>--(<3>)----|


              ~~~~~            ~~~~~
  Q   Q       Q      Q   Q     Q
|-----7-------8----|-----7----12-----|
|------------------|-----------------|
|------------------|-----------------|
|------------------|-----------------|
|------------------|-----------------|
|-3----------------|-3---------------|
|
| Q   Q      +Q      Q   Q    +E   E
|------------------|-----------------|
|------------------|-----------------|
|------------------|-----------------|
|------------------|-----------------|
|------------------|-----------------|
|-3--<3>b4--(<3>)--|-3--<3>--(<3>)---|


      ~~~~~~~~~~        ~~~~~~~~~~
  Q   Q    +E   E   Q   Q    +E   E   Q   E  E E E
|-----7----(7)----|-----7----(7)----|-----7--------||
|-----------------|-----------------|--------------||
|-----------------|-----------------|--------------||
|-----------------|-----------------|--------------||
|-----------------|-----------------|--------------||
|-3-------------0-|-3-------------0-|-3------0-0-0-||
|
| Q   Q    +E   E   Q   Q    +E   E   Q   Q    Q
|-----------------|-----------------|--------------||
|-----------------|-----------------|--------------||
|-----------------|-----------------|--------------||
|-----------------|-----------------|--------------||
|-----------------|-----------------|--------------||
|-3--<3>--(<3>)---|-3--<3>--(<3>)---|-3--<3>---2---||


   Interlude
    Dadd4
                                                4/4
    Gtr I
    E E E E +Q     E E E E +Q     E E E E +Q     E E Q  E E E E
||---------------|--------------|--------------|-----------------||
||o-------5-(5)--|-------5-(5)--|-------5-(5)--|--------5-------o||
||------0--------|-----0--------|-----0--------|-----0----0------||
||----4----------|---4----------|---4----------|---4--------4----||
||o-5------------|-5------------|-5------------|-5------------5-o||
||---------------|--------------|--------------|-----------------||


   Chorus
                                 1.,2.,3.
        F#5 A5         F#5 B5         F#5 A5         F#5D5
   3/4
    Gtr II
    Q    Q   Q     Q    Q   Q     Q    Q   Q     Q    E E +Q     4x
||---------------|--------------|--------------|-----------------||
||o--------------|--------------|--------------|----------------o||
||---------------|--------------|--------------|-----------------||
||-----------7\--|----------9\--|----------7\--|-----/4----------||
||o-----/9-------|-----/9-------|-----/9-------|--------5-(5)---o||
||--2------------|-2------------|-2------------|-2---------------||
|
|   Gtr IV
|   E E  Q   Q     E E  Q   Q     E E  Q   Q     E E  E E  Q     4x
||---------------|--------------|--------------|-----------------||
||o--------------|--------------|--------------|----------------o||
||---------------|--------------|--------------|-----------------||
||--x-x-11--14\--|-x-x-11--16\--|-x-x-11--14\--|-x-x-11s7--7\----||
||o-x-x--9--12\--|-x-x--9--14\--|-x-x--9--12\--|-x-x--9s5--5\---o||
||---------------|--------------|--------------|-----------------||


                                  Free Time (Strings)
  4.
      F#5 A5          F#5D5
  Q    Q   Q     Q.      E +E  E   W        W        W
|--------------|-----------------|--------:--------:------*|
|--------------|-----------------|--------:--------:------*|
|--------------|-----------------|--------:--------:------*|
|----------7\--|-4---------------|--------:--------:------*|
|-----/9-------|---------5-(5)---|--------:--------:------*|
|-2------------|-----------------|--------:--------:------*|
|
| E E  Q   Q     E  E  E E  Q      W        W        W
|--------------|-----------------|--------:--------:------*|
|--------------|-----------------|--------:--------:------*|
|--------------|-----------------|--------:--------:------*|
|-x-x-11--14\--|-x--x-11s7--7----|--------:--------:------*|
|-x-x--9--12\--|-x--x--9s5--5----|--------:--------:------*|
|--------------|-----------------|--------:--------:------*|


Duration Legend
---------------
W - whole; H - half; Q - quarter; E - 8th; S - 16th; T - 32nd; X - 64th; a - acciaccatura
+ - note tied to previous; . - note dotted; .. - note double dotted
Uncapitalized letters represent notes that are staccato (1/2 duration)
Irregular groupings are notated above the duration line
Duration letters will always appear directly above the note/fret number it represents the
duration for.  Duration letters with no fret number below them represent rests.  Multi-
bar rests are notated in the form Wxn, where n is the number of bars to rest for.  Low
melody durations appear below the staff

Tablature Legend
----------------
 h   - hammer-on
 p   - pull-off
 b   - bend
 pb  - pre-bend
 r   - bend release (if no number after the r, then release immediately)
 /\  - slide into or out of (from/to "nowhere")
 s   - legato slide
 S   - shift slide
  - natural harmonic
[n]  - artificial harmonic
n(n) - tapped harmonic
 ~   - vibrato
 tr  - trill
 T   - tap
 TP  - trem. picking
 PM  - palm muting
\n/  - tremolo bar dip; n = amount to dip
 \n  - tremolo bar down
 n/  - tremolo bar up
/n\  - tremolo bar inverted dip
 =   - hold bend; also acts as connecting device for hammers/pulls
 <>  - volume swell (louder/softer)
 x   - on rhythm slash represents muted slash
 o   - on rhythm slash represents single note slash

Misc Legend
-----------
 |  - bar
||  - double bar
||o - repeat start
o|| - repeat end
*|  - double bar (ending)
 :  - bar (freetime)
 $  - Segno
 &  - Coda
Tempo markers -  = BPM(8/16=s8/s16), where s8 = swing 8ths, s16 = swing 16ths


***************************************************************************************
* Generated using Power Tab Editor by Brad Larsen - http://powertab.guitarnetwork.org *
***************************************************************************************
Comments