A Perfect Circle - Passive Chords & Tabs

 

Passive Chords & Tabs

A Perfect Circle Chords & Tabs

Version: 1 Type: Tab 0 ratings
1 star 2 stars 3 stars 4 stars 5 stars
comments

Passive Tab

Passive By A Perfect Circle
Album: eMOTIVE
Original Tab by: Eulogy32
Submitted by: Araceil

This is a great and easy to read tab by Eulogy32.  I take no credit for the
notes, I only made minor changes to the location of the numbers to more
closely resemble the actual timing of the song.

Intro (Clean)
e----------------------------------------------|
B--------------------3-------------------------|
G--3--5-----------3---------3--5---------------|  (2x)
D---------------5----------------------3--2----|
A----------------------------------------------|
E----------------------------------------------|

e------------------------------------------------------|
B------------------------------------------------------|
G-----5--------8\7-5h7-----------5---------------------|
D---5---------5---------------5-----------5h8----------|
A------------------------------------------------------|
E------------------------------------------------------|

e------------------------------------------------------|
B------------------------------------------------------|
G----5--------8\7-5h7---------5------------------------|
D--5--------5--------------5------------5----8---------|
A------------------------------------------------------|
E------------------------------------------------------|

Chorus
e-------------------------------------------------------|
B------10--------11p10-8h10-----------10----------------|
G---7-----------7------------------7-----------10-9-----|
D-------------------------------------------------------|
A-------------------------------------------------------|
E-------------------------------------------------------|

Verse
e-------------------------------------- (Play 3x, then part 2 and repeat--.)
B---9\8--88-88-88--88--88-88-6h8------------------------------------------.)

Part 2
e-------------------------------------------------|
B---6-6-6-6-6-6-6-6/11-11-11-11-11-11-11-11-------|
[ Tab from: http://www.guitartabs.cc/tabs/a/a_perfect_circle/passive_tab.html ]
Bridge
e----------1---------------1-----------------------------------|
B------------2---------------2---------------------------------|
G------2---------------2---------------------------------------|
D---4----------------4-----------------------------------------|
A--------------------------------------------------------------|
E--------------------------------------------------------------|

Outro (* means strum multiple times)
e---------------------------------------------------|
B---11-13---10---8---6---11--10---8-----------------|
G-----------------------------------end with this---|
D---8--10---7----5---3---8---7----5-----------------|
A---*--*----*----*----------------*-----------------|
E---------------------------------------------------|


Lyrics:
----------------------------------------------------
Dead as dead can be, the doctor tells me.
But I just can't believe him; ever the optimistic one.
I'm sure of your ability
to become my perfect enemy.
----------------------------------------------------
Wake up and face me. Don't play dead cause maybe,
Someday I will walk away and say:
"You disappoint me.
Maybe you're better off this way".
----------------------------------------------------
Leaning over you here, cold and catatonic,
I catch a brief reflection of what you could and might have been.
It's your right and your ability
to become my perfect enemy.
----------------------------------------------------
Wake up and face me. Don't play dead cause maybe,
Someday I will walk away and say:
"You disappoint me.
Maybe you're better off this way".
----------------------------------------------------
Maybe you're better off this way...
Maybe you're better off this way...
Maybe you're better off this way...
You're better off this...You're better off this...
Maybe you're better off...
----------------------------------------------------
Wake up and face me. Don't play dead cause maybe,
Someday I will walk away and say:
"You fucking disappoint me.
Maybe you're better off this way".
----------------------------------------------------
Go ahead and play dead, I know that you can hear this.
Go ahead and play dead, Why can't you turn and face me?
Why can't you turn and face me?
Why can't you turn and face me?
Why can't you turn and face me?
You fucking disappoint me.
----------------------------------------------------
Passive aggressive bullshit. Passive aggressive bullshit.
Passive aggressive bullshit. Passive aggressive bullshit.
Passive aggressive bullshit. Passive aggressive bullshit.
Comments