A Perfect Circle - Orestes Chords & Tabs

 

Orestes Chords & Tabs

A Perfect Circle Chords & Tabs

Version: 4 Type: Tab 0 ratings
1 star 2 stars 3 stars 4 stars 5 stars
comments

Orestes Tab

   
BAnd- A Perfect Circle
Song- Orestes

  E                   F#                   G5                   E5
      0 2 2 1 x x          2 4 4 x x x          3 5 5 x x x          x 7 9 9 x x

          D5                   C5                  G5/A                  G5X
      x 5 7 7 x x          x 3 5 5 x x          x 0 0 0 x x        x 10 12 12 x x

        E5open
      0 2 2 x x x

Gtr I (C# F# B E G# C#) - 'Gtr. 1 (elec. w/chorus, delay, and reverb)'
Gtr II (G# C# F# B D# G#) - 'Gtr. 2 (baritone elec. w/chorus)'
Gtr III (C# F# B E G# C#) - 'Gtr. 3 (clean elec. w/chorus and reverb)'
Gtr IV (C# F# B E G# C#) - 'Gtr. 3 (elec. w/dist.)'
Gtr V (C# F# B E G# C#) - 'Gtr. 1 (w/pick and slight dist.)'
Gtr VI (C# F# B E G# C#) - 'Gtr. 1 (elec. w/dist.)'

 Intro
  Moderately Slow Q.=49
  Em7           Fmaj9         Em7           Fmaj9
 6/8
  Gtr I
  <
  E E E E E E   E E E E E E   E E E E E E   E E E E E E
|-------------|-------------|-------------|-------------||
|-0-----0-----|-8-----8-----|-0-----0-----|-8-----8-----||
|---7-----7---|---9-----9---|---7-----7---|---9-----9---||
|-----5-----5-|-----7-----7-|-----5-----5-|-----7-----7-||
|-7-----------|-8-----------|-7-----------|-8-----------||
|-------------|-------------|-------------|-------------||


 Verse
  Em7   Em7/G   Fmaj9/Fmaj9/D Em7   Em7/A   Fmaj9/Fmaj9/A
  E E E E E E   E E E E E E   E E E E E E   E E E E E E
|-------------|-------------|-------------|-------------|
|-0-----0-----|-8-----8-----|-0-----0-----|-8-----8-----|
|---7-----7---|---9-----9---|---7-----7---|---9-----9---|
|-----5-----5-|-----7-----7-|-----5-----5-|-----7-----7-|
|-7-----------|-8-----------|-7-----------|-8-----------|
|-------------|-------------|-------------|-------------|


  Em7   Em7/G   Fmaj9/Fmaj9/D Em7   Em7/A   Fmaj9/Fmaj9/A
  E E E E E E   E E E E E E   E E E E E E   E E E E E E
|-------------|-------------|-------------|-------------|
|-0-----0-----|-8-----8-----|-0-----0-----|-8-----8-----|
|---7-----7---|---9-----9---|---7-----7---|---9-----9---|
|-----5-----5-|-----7-----7-|-----5-----5-|-----7-----7-|
|-7-----------|-8-----------|-7-----------|-8-----------|
|-------------|-------------|-------------|-------------|


  Em7   Em7/G   Fmaj9/Fmaj9/D Em7   Em7/A   Fmaj9/Fmaj9/A
  E E E E E E   E E E E E E   E E E E E E   E E E E E E
|-------------|-------------|-------------|-------------|
|-0-----0-----|-8-----8-----|-0-----0-----|-8-----8-----|
|---7-----7---|---9-----9---|---7-----7---|---9-----9---|
|-----5-----5-|-----7-----7-|-----5-----5-|-----7-----7-|
|-7-----------|-8-----------|-7-----------|-8-----------|
|-------------|-------------|-------------|-------------|


  Em7   Em7/G   Fmaj9/Fmaj9/D Em7   Em7/A   Fmaj9/Fmaj9/A
  E E E E E E   E E E E E E   E E E E E E   E E E E E E
|-------------|-------------|-------------|-------------||
|-0-----0-----|-8-----8-----|-0-----0-----|-8-----8-----||
|---7-----7---|---9-----9---|---7-----7---|---9-----9---||
|-----5-----5-|-----7-----7-|-----5-----5-|-----7-----7-||
|-7-----------|-8-----------|-7-----------|-8-----------||
|-------------|-------------|-------------|-------------||


 Chorus
  Em7              D6                 G/C
  Gtr I
  E E E E  E   E   E  E    E  E E E     Q         E   +E     E   E
|----------------|------------------|-------------------------------|
|-0-----0--------|-0----------0-----|---0---------------------------|
|---7------7-----|----5---------5---|-------------------------------|
|-----5--------5-|---------7------7-|-------------0---(0)---(0)--0--|
|-7--------------|-5----------------|-------------------------------|
|----------------|------------------|-------------------------------|
|
| Gtr II
| Q   E E.   S E   E.   S +E  Q   E     E.     S +E    Q         E
|----------------|------------------|-------------------------------|
|----------------|------------------|-------------------------------|
|----------------|------------------|-------------------------------|
|----------------|------------------|-------------------------------|
|----------------|------------------|-------------------------------|
|-5---5-5----5-5S|=3----3-(3)-3---3S|===1------1-(1)---1---------1--|
|
| Gtr III
| W                W                    E   Q         +E     E   E
|----------------|------------------|-------------------------------|
|----------------|------------------|----------------------<12>-----|
|----------------|------------------|-<12>--------------------------|
|----------------|------------------|------<7>-------(<7>)------<7>-|
|----------------|------------------|-------------------------------|
|----------------|------------------|-------------------------------|


                                  Em7                D6
   +E   Q           E   E    E    E  E    E  E E E    E   E     E     E  E E
|-------------------------------|------------------|--------------------------|
|-------------------0-----------|-0----------0-----|--0---------------0-------|
|-------2-----------------------|----7---------7---|------5--------------5----|
|--(0)------------------0----0--|---------5------5-|------------7----------7--|
|-------------------------------|-7----------------|--5-----------------------|
|-------------------------------|------------------|--------------------------|
|
|   E.    S +S  S   E   E    E    E.   S +E  Q   E    E.     S +S  S  E  E E
|-------------------------------|------------------|--------------------------|
|-------------------------------|------------------|--------------------------|
|-------------------------------|------------------|--------------------------|
|-------------------------------|------------------|--------------------------|
|-------------------------------|------------------|--------------------------|
|---1-----1-(1)-1---1---1----1S=|=5----5-(5)-5---5S|==3------3-(3)-3--3--3-3\-|
|
|  +Q.              E   E    E    W                   E   Q           Q.
|-------------------------------|------------------|--------------------------|
|-----------------<12>----------|------------------|--------------------------|
|--------------------------<12>-|------------------|-----<5>------------------|
|-(<7>)----------------<7>------|------------------|-<4>-------------<4>------|
|-------------------------------|------------------|--------------------------|
|-------------------------------|------------------|--------------------------|


                                             Verse
  Gadd2/C                                     Em7    Em7/G   Fmaj9   Fmaj9/D
   E   Q       Q.       +E   Q     E   E E    E  E E E E E    E  E E E E E
|--------------------|---------------------||--------------|---------------|
|--0-----------------|-------------0-------||-0------0-----|--8------8-----|
|------2-------------|-------2-----------0-||----7-----7---|-----9-----9---|
|--------------0-----|--(0)------------0---||------5-----5-|-------7-----7-|
|--------------------|---------------------||-7------------|--8------------|
|--------------------|---------------------||--------------|---------------|
|
|                                                             >
|  E   S  E.   Q.        H.                   H.             +H.
|--------------------|---------------------||--------------|---------------|
|--------------------|---------------------||--------------|---------------|
|--------------------|---------------------||--------------|---------------|
|--------------------|---------------------||--------------|---------------|
|--------------------|---------------------||-0------------|-(0)-----------|
|--1---1--1----1-----|---1-----------------||--------------|---------------|
|
|  E   Q      +Q.        E   Q    +Q.         W               W
|--------------------|---------------------||--------------|---------------|
|--------------------|-<12>----------------||--------------|---------------|
|-<4>----------------|---------------------||--------------|---------------|
|-----<7>----(<7>)---|------<7>--(<7>)-----||--------------|---------------|
|--------------------|---------------------||--------------|---------------|
|--------------------|---------------------||--------------|---------------|


  Em7   Em7/A   Fmaj9/Fmaj9/A Em7   Em7/G   Fmaj9/Fmaj9/D Em7   Em7/A
  E E E E E E   E E E E E E   E E E E E E   E E E E E E   E E E E E E
|-------------|-------------|-------------|-------------|--------------|
|-0-----0-----|-8-----8-----|-0-----0-----|-8-----8-----|-0-----0------|
|---7-----7---|---9-----9---|---7-----7---|---9-----9---|---7-----7----|
|-----5-----5-|-----7-----7-|-----5-----5-|-----7-----7-|-----5-----5--|
|-7-----------|-8-----------|-7-----------|-8-----------|-7------------|
|-------------|-------------|-------------|-------------|--------------|


                  Interlude
  Fmaj9/Fmaj9/A    E5             C5      D5
                                   >
  E E E E S S E    +H.            +H.
|---------0-----||--------------|----------------|
|-8-----8---x---||--------------|----------------|
|---9-----------||--------------|----------------|
|-----7---------||--------------|----------------|
|-8-------------||--------------|----------------|
|-------------1-||-(1)----------|-(1)------------|
|
|                  Gtr II
| W                 Q.   +Q   E    Q.   S S E E
|---------------||--------------|----------------|
|---------------||--------------|----------------|
|---------------||--------------|----------------|
|---------------||--------------|----------------|
|---------------||--------------|----------------|
|---------------||--1----(1)--5S|==1----1s3-3-3/-|


  E5                                          C5          Dsus2
  Gtr IV
   W          W            Q   E  E  E  E      A  E  E  E  S  S E  S  S
|----------|------------|-------------------|-------------------0--0--0-|
|----------|------------|-16--15-13-12-12---|-13s15-15-15-15s10-9-10-10-|
|----------|------------|-------------------|---------------------------|
|----------|------------|-------------------|---------------------------|
|----------|------------|-------------------|---------------------------|
|----------|------------|-------------------|---------------------------|
|
| Gtr II
|  H.        +Q.   Q.      Q.        Q    E    Q.       S  S  E E
|----------|------------|-------------------|---------------------------|
|----------|------------|-------------------|---------------------------|
|----------|------------|-------------------|---------------------------|
|----------|------------|-------------------|---------------------------|
|----------|------------|-------------------|---------------------------|
|-/5-------|-(5)---5----|--5---------5----5S|==1--------1s=3--3-3-------|


                                              Bridge
  Em7                         Fmaj9            E11
  Gtr IV
             <
   E   E  E  E   S  S  E       E  E E E E E     E  S  S  E    E E   E
|--0---0--0--0---0--0--0----|--0--0-0-0-0-0-||--0--0--0--0----0---------|
|-10--10-10-10--10-10-10----|-10\-8-8-8-8-8-||-10-10-10-10---10-----7---|
|---------------------------|---------------||------------------7-------|
|---------------------------|---------------||--------------------------|
|---------------------------|---------------||--------------------------|
|---------------------------|---------------||--------------------------|
|
| Gtr I                                        Gtr V
|            <
|  E   E  E  E   E     E       E  E E E E E     E  S  E    S  E S E   S
|---------------------------|---------------||--------------------------|
|--0---------0--------------|--8------8-----||--------7-------7---7-----|
|------7---------7----------|-----9-----9---||-----9-------9----9-----9-|
|---------5------------5----|-------7-----7-||--9-----------------------|
|--7------------------------|--8------------||--------------------------|
|---------------------------|---------------||--------------------------|
|
| Gtr II
|  Q.       +E.     S +S  S    E  E E E E E     W
|---------------------------|---------------||--------------------------|
|---------------------------|---------------||--------------------------|
|---------------------------|---------------||--------------------------|
|---------------------------|---------------||--------------------------|
|---------------------------|---------------||--------------------------|
|--5--------(5)-----5-(5)-6-|--6--6-6-6-6-6-||--------------------------|


  A5/C  A5/D    Esus2                   A5/C  A7
  Gtrs IV, V
  E E E E E E   E S S S S S S S S S S   E E E E.  S  +E
|-------------|-----------------------|------------------|
|-------------|-----7-----7-----7-----|----------10-(10)-|
|---9---9---9-|---9---9-9---9-9---9-9-|---9------11-(11)-|
|-7---7---7---|-7---------------------|-7---7S5---9--(9)-|
|-------------|-----------------------|------------------|
|-------------|-----------------------|------------------|


  Esus2                A5/C  A5/D    Esus2
   +E  E S S E S E S   E E E E E E   E S E S E S E S
|--------------------|-------------|-----------------|
|-(10)---7---7---7---|-------------|-----7---7---7---|
|-(11)-9---9---9---9-|---9---9---9-|-9-9---9---9---9-|
|--(9)---------------|-7---7---7---|-7---------------|
|--------------------|-------------|-----------------|
|--------------------|-------------|-----------------|


  Em/F#     A5
  S S S E S S  S  E  E
|-----0-0-0-0-----0--0--||
|-7h8-8-8-8-8s10-10-10\-||
|-----------------------||
|-----------------------||
|-----------------------||
|-----------------------||
|
| W
|-----------------------||
|-----------------------||
|-----------------------||
|-----------------------||
|-----------------------||
|-----------------------||


 Chorus
  Em7                          D6
  Gtr IV
  E.   S +S  S S  S  S  S  E   E.   S +S  S E.   S S S
|-0----0-(0)---------0--0--0-|-------------------------|
|-8----8-(8)-8-8s10-10-10-10S|=5----5-(5)s7S5----5-5s8-|
|----------------------------|-------------------------|
|----------------------------|-------------------------|
|----------------------------|-------------------------|
|----------------------------|-------------------------|
|
| Gtr I
| E  E    E    E     E     E   E  E    E    E  E   E
|----------------------------|-------------------------|
|-0------------0-------------|-0------------0----------|
|----7---------------7-------|----5------------5-------|
|---------5----------------5-|---------7-----------7---|
|-7--------------------------|-5-----------------------|
|----------------------------|-------------------------|

[ Tab from: http://www.guitartabs.cc/tabs/a/a_perfect_circle/orestes_tab_ver_4.html ]
  Gadd2/C
  E.   S +E  E  E  E    E   E        E      E      +E  S S
|--------------------|-------------------------------------|
|-8----8-(8)-8S10-10-|-10--10pb10.5-10pb11-10pb12r(10)-5-5-|
|--------------------|-------------------------------------|
|--------------------|-------------------------------------|
|--------------------|-------------------------------------|
|--------------------|-------------------------------------|
|
| E  Q       Q.        +E   Q               E       E  E
|--------------------|-------------------------------------|
|-0------------------|----------------------0--------------|
|----2---------------|------2--------------------------0---|
|------------0-------|-(0)--------------------------0------|
|--------------------|-------------------------------------|
|--------------------|-------------------------------------|


  Em7
  E.   S +S  S S  S  E  E
|-0----0-(0)-0-0-----0--0--|
|-5----8-(8)-8-8s10-10-10\-|
|--------------------------|
|--------------------------|
|--------------------------|
|--------------------------|
|
| E  E    E    E     E  E
|--------------------------|
|-0------------0-----------|
|----7---------------7-----|
|---------5-------------5--|
|-7------------------------|
|--------------------------|


  D6                           Gadd2/C
                   ~
  E.   S +S    +S  E S S S S   S S E S S E. S +E     E  E E S S S S S S
|----------------------------|-----0-0-0-0--0-(0)-|--0--0-0-0-0-0-0-0-0-||
|-5----5-(5)b6-(5)-5-5-5-5-5-|-5s3-3-3-3-3--3-(3)-|--3--3-3-0-0-0-0-0-0-||
|----------------------------|--------------------|-------2-0-0-0-0-0-0-||
|----------------------------|--------------------|-----------------0-0-||
|----------------------------|--------------------|---------------------||
|----------------------------|--------------------|---------------------||
|
| E  E    E        E E   E     E   Q     Q.         +E  Q   E   E   E
|----------------------------|--------------------|---------------------||
|-0----------------0---------|-0------------------|---------0-----------||
|----5---------------5-------|-----2--------------|-----2-----------0---||
|---------7--------------7---|-----------0--------|-(0)---------0-------||
|-5--------------------------|--------------------|---------------------||
|----------------------------|--------------------|---------------------||


 Guitar Solo
  Em7                     D6                   Gadd2/C
  Gtr IV
  S S S E   S S S E S S   S S S E.   E E S S   S S S E S S S E S S
|-------0---0-0---------|--------------------|-------0-0-0----------|
|-------0---0-0---0-----|--------------------|-------0-0-0---0------|
|-2s4-4-4---4-4s2-0-----|-------0--------0-0-|-2s4-4-4-4-4s2-0------|
|-------------------0-0-|-2s4-4------7-7-----|-----------------0-0--|
|-----------------------|--------------------|----------------------|
|-----------------------|--------------------|----------------------|
|
| E   E   E   E   E E     E   E    E E E E     E   Q     Q.
|-----------------------|--------------------|----------------------|
|-0-----------0---------|-0----------0-------|-0--------------------|
|-----7-----------7-----|-----5--------5-----|-----2----------------|
|---------5---------5---|----------7-----7---|-----------0----------|
|-7---------------------|-5------------------|----------------------|
|-----------------------|--------------------|----------------------|


                        Em7                     D6
   S  S S E S E E S S   S S S E   S S S E S S   S S S E.   E E S T T
|---------------------|-------0---0-0---------|-----------------------|
|---------------------|-------0---0-0---------|-----------------------|
|---------0-------0-2-|-2s4-4-4---4-4s2-0-----|-------0------0--------|
|--2s=4-4---4-2-0-----|-------------------0-0-|-2s4-4------7---5-5s7--|
|---------------------|-----------------------|-----------------------|
|---------------------|-----------------------|-----------------------|
|
| +E    Q     E E E     E   E   E   E   E E     E   E    E E E E
|---------------------|-----------------------|-----------------------|
|-------------0-------|-0-----------0---------|-0----------0----------|
|-------2---------0---|-----7-----------7-----|-----5--------5--------|
|-(0)-----------0-----|---------5---------5---|----------7-----7------|
|---------------------|-7---------------------|-5---------------------|
|---------------------|-----------------------|-----------------------|


  Gadd2/C
  S S S E   S  S  S S E   S    S  S S E S E E S S
|---------------------------|---------------------||
|---------------------------|---------------------||
|-------0-------------0---0-|---------0-----------||
|-7s5-5-----5--5s=4-4-----4-|--4s=2-2---0---0-----||
|---------------------------|-------------5---5s7-||
|---------------------------|---------------------||
|
| E   E   E   +Q        E     +E    Q     E E E
|---------------------------|---------------------||
|-0-------------------------|-------------0-------||
|-----2---------------------|-------2-------2-0---||
|---------0---(0)-------0---|-(0)-----------------||
|---------------------------|---------------------||
|---------------------------|---------------------||


 Interlude
  Em7                   Fmaj9               Em7             Fmaj9
  Gtr IV
                         ~~~~~~~~~~~
  Q.     +Q    +E       +Q.     +Q    +E    +H.             Q.     Q   E
|---------------------|-------------------|---------------|------------0--||
|---------------------|-------------------|---------------|------------3/-||
|---------------------|-------------------|---------------|---------------||
|---------------------|-------------------|---------------|---------------||
|-7------(7)---(7)b8==|=(7)-----(7)---(7)r|=(7)-----------|---------------||
|---------------------|-------------------|---------------|---------------||
|
| Gtr I
| E  E E  E  E  E        E  E E  E  E  E     E  E E E E E   E  E E E E E
|---------------------|-------------------|---------------|---------------||
|-0-------0-----------|--8-------8--------|--0------0-----|-8------8------||
|----7-------7--------|-----9-------9-----|-----7-----7---|----9-----9----||
|------5--------5-----|-------7--------7--|-------5-----5-|------7-----7--||
|-7-------------------|--8----------------|--7------------|-8-------------||
|---------------------|-------------------|---------------|---------------||


 Guitar Solo
  Cadd2          Bb            E5/Eb          E5/Ab
   E  E  S  S  S  S  S  S  E     E  E  S  S  S  S  S  S  S  S
|--0--0--0--0--0-----0--0--0--|--0--0--0-----0-----0--0--0----|
|-15-15-15-15-15s17-17-17-17\-|-12-12-12h13-12h13-12-12-12s15-|
|-----------------------------|-------------------------------|
|-----------------------------|-------------------------------|
|-----------------------------|-------------------------------|
|-----------------------------|-------------------------------|


  Cadd2             Dsus2
   E  S  S  S  S  S  S  S  S  E
|--0--0--0--0--0--0-----0--0--0-|
|-15-15-15-15-15-15s17-17-17-17-|
|-------------------------------|
|-------------------------------|
|-------------------------------|
|-------------------------------|


  E5/Eb                    Fmaj7
   E  E       S       S     E       S S E
|--0--0-------0-------0-----0-------0-0-0-|
|-17-17b17.5-17b17.5-17b18-17b17.5-17---6S|
|-----------------------------------------|
|-----------------------------------------|
|-----------------------------------------|
|-----------------------------------------|


  Cadd2          Bb           E5/Eb             E5/Ab
   E  S  E  S  S  S  S  S  E    E  E  S  S  S  S  E  E
|--0--0--0--0--0-----0--0--0-|--0--0--0-----0-----0--0-|
|-15-15-15-15-15s17-17-17-17S|=12-12-12h13-12h13-12-12-|
|----------------------------|-------------------------|
|----------------------------|-------------------------|
|----------------------------|-------------------------|
|----------------------------|-------------------------|


  C6            Bbmaj7b5    Esus4/Eb  Fmaj7      C         Bbmaj7b5
                                             Gtr V
   S  S S  E  S  E  E.  S    E  S  E.  +E  E E   E E S S S  S  E  E
|--0----0--0--0--0--0---0-|--0--0--0---(0)-----|-0-0-0-0-0-----0--0--|
|-12s10---10-10-10-10--10-|-10-10-10--(10)---2S|=8-8---8-8s10-10-10\-|
|-------------------------|------------------0-|-0-------------------|
|-------------------------|--------------------|---------------------|
|-------------------------|--------------------|---------------------|
|-------------------------|--------------------|---------------------|


  E5/Eb     E5/Ab     C           Dsus2      Fmaj7
  E E S S S S E S S   E S S S S S  S  E  E    E       E       E  S  S  E E
|-0-0-0---0---0-0---|-0---0---0-0-----0--0-|--0-------0-------0--0-----0-0-|
|-5-5-5h6-5h6-5-5s8-|-8-8---8-8-8s10-10-10-|-10b10.5-10pb11==10-10r10-10-3-|
|-------------------|----------------------|-------------------------------|
|-------------------|----------------------|-------------------------------|
|-------------------|----------------------|-------------------------------|
|-------------------|----------------------|-------------------------------|


  C6        Bbmaj7b5     E5/Eb     Fmaj7     Dsus2
  E S S S S S  S  E  E   E S S S S S S E E   S S S E S Q.
|-0---0---0-0--------0-|-0-0-0-0---0---0-0-|-0---0-----------|
|-8-8---8-8-8s10-10-10S|=5-5---5h6-5h6-5-5-|-5p3-3-3-3-3-----|
|-----------------9----|-------------------|-----------------|
|----------------------|-------------------|-----------------|
|----------------------|-------------------|-----------------|
|----------------------|-------------------|-----------------|


                   Chorus
  E   F#   G5       E5             D5                 C5
  Gtr VI
   E. S +E Q   E    E. S +E E. S S S   E. S +E E. S S S
   |  |  | |   |    |  |  | |  | | |   |  |  | |  | | |
   /  /  / /   /    /  /  / /  / / /   /  /  / /  / / /

  Gtr IV
  +Q.      Q.       W                  Q.      E. S E
|----------------||------------------|------------------|
|-(3)------------||------------------|------------------|
|----------------||------------------|------------9p7---|
|----------------||------------------|------------------|
|----------------||------------------|------------------|
|----------------||------------------|------------------|


                                      G5/A    E5                G5X
  E. S +E  E. S S S    E. S +E  E S S  S  S    E.  S  +S   S  S S  S  S  E
  |  |  |  |  | | |    |  |  |  | | |  |  |    |   |   |   |  | |  |  |  |
  /  /  /  /  / / /    /  /  /  / / /  /  /    /   /   /   /  / /  /  /  /

  ~~~~~    ~~~~~~~~~~~~~~~                         ~~~~~~~~~~~~~~~~~~~~~~~~~~~
  E. S +E  Q.         +E. S +E  E E    S  S    E.  S  +S   S  E    S  S  S  S
|-------------------|-----------------------|---------------------------------|
|-------------------|-----8-(8)-7-7---10-10-|-10--10-(10)-10-10---10-10-10-10-|
|-9--9-(9)-9--------|-(9)-------------------|---------------------------------|
|-------------------|-----------------------|---------------------------------|
|-------------------|-----------------------|---------------------------------|
|-------------------|-----------------------|---------------------------------|


  D5
   E.        S +S  S  E     S  S  E
   |         |  |  |  |     |  |  |
   /         /  /  /  /     /  /  /

   ~~~~~~~~~~~~~~~~~~~~~~~~~~~~~~
   S   S  S  S  S  S  S  S  S  S  E
|-----------------------------------|
|-12--12-12-12-12-12-12-12-12-12-12-|
|-----------------------------------|
|-----------------------------------|
|-----------------------------------|
|-----------------------------------|


  C5                                         G5/A
  E. S     +S   S  E S S S S   E S S E E S S E
  |  |      |   |  | | | | |   | | | | | | | |
  /  /      /   /  / / / / /   / / / / / / / /

  E. S     +S  +S  E S S S S   E S S E E E   E
|----------------------------|------------------|
|-5--5pb8==(5)r(5)-5-5-5-5-5-|-5-5-5-5-5-5---3/-|
|----------------------------|------------------|
|----------------------------|------------------|
|----------------------------|------------------|
|----------------------------|------------------|


  E5
  E.   S +S S E     S S  E
  |    |  | | |     | |  |
  /    /  / / /     / /  /

  E  S E    S S  S  E    E
|-0--0-0----0-0-----0----0-|
|-8--8-8----8-8s10-10---10S|
|--------------------------|
|--------------------------|
|--------------------------|
|--------------------------|


  D5                        C5
  E S E      S  E S S E     E S E S E     S  S  S S
  | | |      |  | | | |     | | | | |     |  |  | |
  / / /      /  / / / /     / / / / /     /  /  / /

  E S S S   +S  E S S S S   E S E S S  S  S  S  E
|-0-0-0-0---(0)-0-0-0-0---|-0-0-0-0-0-----0--0--0----|
|-5-5-5-5b6-(5)-5-5-5-5s8-|-8-8-8-8-8s10-10-10-10----|
|-------------------------|--------------------------|
|-------------------------|--------------------------|
|-------------------------|--------------------------|
|-------------------------|--------------------------|


   E     S   E   S   S  S S S E
   |     |   |   |   |  | | | |
   /     /   /   /   /  / / / /

   Q        +E   E   E  E
|--0--------(0)--0---0--0-------|
|-10b11====(10)-10r-10\-3S======|
|-------------------------------|
|-------------------------------|
|-------------------------------|
|-------------------------------|


  E5                   D5                       C5
  E. S +S S E  S  S  S S    E S E S    E  S S S S
  |  |  | | |  |  |  | |    | | | |    |  | | | |
  /  /  / / /  /  /  / /    / / / /    /  / / / /

  E  S  E S S  S  S  S E    E S S S   +S  E S S E
|-0--0--0-0-0-----0--0-0--|-0-0-0-0---(0)-0-0-0-0-|
|-8-----8-8-8s10-10-10-0--|-5-5-5-5b6-(5)-5-5-5-5-|
|-------------------------|-----------------------|
|-------------------------|-----------------------|
|-------------------------|-----------------------|
|-------------------------|-----------------------|


                                      G5/AE5        G5X
  E.S +E  E  S  S  E    E S S E E S S E   E S E S S S S S  E
  | |  |  |  |  |  |    | | | | | | | |   | | | | | | | |  |
  / /  /  /  /  /  /    / / / / / / / /   / / / / / / / /  /

  S S +S  E. E. S  E    E S S E E E E     S S S E S S S E. S
|-0-------0--0--0--0--|-0-0-0-0-0-0-----|-------0-0----------|
|-5s3-(3)-3--3--3-(3)-|-3-3-3-3-3-3-0---|-------0-0----------|
|---------------------|-----------------|-2s4-4-4-4-4s2-0----|
|---------------------|-----------------|------------------0-|
|---------------------|-----------------|--------------------|
|---------------------|-----------------|--------------------|


  D5           G5X         C5                                        G5/A
  E.  S +S S S S S S E     E   S E S E   S S S S   E   S S E   E S S S S
  |   |  | | | | | | |     |   | | | |   | | | |   |   | | |   | | | | |
  /   /  / / / / / / /     /   / / / /   / / / /   /   / / /   / / / / /

  S E S  E   E   E   S S   S S S E S S S E   S S   S S S E   S E E   S S
|------------------------|-------0-0-------------|-----------------------|
|------------------------|-------0-0-------------|-----------------------|
|--------0-----------0-0-|-2s4-4-4-4-4s2-0-------|-------0-----------0-2-|
|-2s4-4------7---7-------|-------------------0-0-|-2s4-4-----4s2-0-------|
|------------------------|-----------------------|-----------------------|
|------------------------|-----------------------|-----------------------|


  E5          G5X          D5            G5X       C5
  E   S E S S S S  S E     E.   S  S S S S E E     E   S E S E   S E S
  |   | | | | | |  | |     |    |  | | | | | |     |   | | | |   | | |
  /   / / / / / /  / /     /    /  / / / / / /     /   / / / /   / / /

  S S S E S S S E.     S   S E +S  E   E   E S S   S S S E S S S S E S
|-------0-0--------------|-----------------------|---------------------|
|-------0-0--------------|-----------------------|---------------------|
|-2s4-4-4-4-4s2-0--------|---------0---------0-0-|-------0---------0-0-|
|----------------------0-|-2s4-(4)-----7---7-----|-7s5-5---5-5s4-4---4-|
|------------------------|-----------------------|---------------------|
|------------------------|-----------------------|---------------------|


                                H.=H
                           E5open                           N.C.
  E   S S E E   S S E      H.                 +H.           W
  |   | | | |   | | |      |                   |
  /   / / / /   / / /      /                   /

                                                     >
  S S S S E S S S S S S    Q.   +E     +Q     +Q.   +Q.     W
|-----------------------||------------------:-------------:------*|
|-----------------------||------------------:-------------:------*|
|-0-----0-0-0-0-0-0-0---||------------------:-------------:------*|
|-4s2-2-2-2-2-0-0-0-0---||------------------:-------------:------*|
|---------------------7-||-7----(7)b8==(7)--:-(7)r==(7)---:------*|
|-----------------------||------------------:-------------:------*|


Duration Legend
---------------
W - whole; H - half; Q - quarter; E - 8th; S - 16th; T - 32nd; X - 64th; a - acciaccatura
+ - note tied to previous; . - note dotted; .. - note double dotted
Uncapitalized letters represent notes that are staccato (1/2 duration)
Irregular groupings are notated above the duration line
Duration letters will always appear directly above the note/fret number it represents the
duration for.  Duration letters with no fret number below them represent rests.  Multi-
bar rests are notated in the form Wxn, where n is the number of bars to rest for.  Low
melody durations appear below the staff

Tablature Legend
----------------
 h   - hammer-on
 p   - pull-off
 b   - bend
 pb  - pre-bend
 r   - bend release (if no number after the r, then release immediately)
 /\  - slide into or out of (from/to "nowhere")
 s   - legato slide
 S   - shift slide
  - natural harmonic
[n]  - artificial harmonic
n(n) - tapped harmonic
 ~   - vibrato
 tr  - trill
 T   - tap
 TP  - trem. picking
 PM  - palm muting
\n/  - tremolo bar dip; n = amount to dip
 \n  - tremolo bar down
 n/  - tremolo bar up
/n\  - tremolo bar inverted dip
 =   - hold bend; also acts as connecting device for hammers/pulls
 <>  - volume swell (louder/softer)
 x   - on rhythm slash represents muted slash
 o   - on rhythm slash represents single note slash

Misc Legend
-----------
 |  - bar
||  - double bar
||o - repeat start
o|| - repeat end
*|  - double bar (ending)
 :  - bar (freetime)
 $  - Segno
 &  - Coda
Tempo markers -  = BPM(8/16=s8/s16), where s8 = swing 8ths, s16 = swing 16ths


***************************************************************************************
* Generated using Power Tab Editor by Brad Larsen - http://powertab.guitarnetwork.org *
***************************************************************************************
Comments