A Perfect Circle - Orestes Acoustic Chords & Tabs

 

Orestes Acoustic Chords & Tabs

A Perfect Circle Chords & Tabs

Version: 2 Type: Tab 0 ratings
1 star 2 stars 3 stars 4 stars 5 stars
comments

Orestes Acoustic Tab

this is a demo on a perfect circle cd that i got and billy howderel plays guitar
and sings.It took me a while to figure it out but i think it sounds exactly like it.

Intro  2x

E  -2---2-2-2-2-2\--------3--3-3-3-3--------2--2-2-2-2\--------3--3-3-
B  -3---3-3-3-3-3\--------3--3-3-3-3--------3--3-3-3-3\--------3--3-3-
G  -4---4-4-4-4-4\--------0--0-0-0-0--2-2---4--4-4-4-4\--------0--0-0-
D  -4---4-4-4-4-4\7-7-7-7-0--0-0-0-0--2-2---4--4-4-4-4\9-9-9-9-0--0-0-
A  -2---2-2-2-2-2\5-5-5-5-2--2-2-2-2--0-0---2--2-2-2-2\7-7-7-7-2--2-2-
E  -0---0-0-0-0-0\--------3--3-3-3-3--------0--0-0-0-0\--------3--3-2-

E  3-3----------------------------------------------------------------
B  3-3----------------------------------------------------------------
G  0-0----------------------------------------------------------------
D  0-0-----5-4--------------------------------------------------------
A  2-2---2-3-2--------------------------------------------------------
E  3-3---0------------------------------------------------------------
[ Tab from: http://www.guitartabs.cc/tabs/a/a_perfect_circle/orestes_acoustic_tab_ver_2.html ]
chorus 2x
E  -3--3-3-3-3--3-3-0-------------------3--3-3-3-3--3-3-3-3--3-3-3-3--
B  -3--3-3-3-3--3-3-0-2--2-2-2-2--2-2-0-3--3-3-3-3--3-3-3-3--3-3-3-3--
G  -0--0-0-0-0--0-0-0-2--2-2-2-2--2-2-0-0--0-0-0-0--0-0-0-0--0-0-0-0--
D  -0--0-0-0-0--0-0-0-2--2-2-2-2--2-2-0-0--0-0-0-0--0-0-0-0--0-0-0-0--
A  -2--2-2-2-2--2-2-0-0--0-0-0-0--0-0-0-2--2-2-2-2--2-2-2-2--2-2-2-2--
E  -3--3-3-3-3--3-3-0-------------------3--3-3-3-3--3-3-3-3--3-3-3-3--

play the intro 

 i can almost hear__________  you scream(verse)
     E  2--2-2-2-2--2-2-2-2--2-2-2-2--3--3-3-3-3--3-3-3-3--3-3-3-3----------
     B  3--3-3-3-3--3-3-3-3--3-3-3-3--3--3-3-3-3--3-3-3-3--3-3-3-3----------
2x   G  4--4-4-4-4--4-4-4-4--4-4-4-4--0--0-0-0-0--0-0-0-0--0-0-0-0---2-2----
     D  4--4-4-4-4--4-4-4-4--4-4-4-4--0--0-0-0-0--0-0-0-0--0-0-0-0---2-2----
     A  2--2-2-2-2--2-2-2-2--2-2-2-2--2--2-2-2-2--2-2-2-2--2-2-2-2---0-0----
     E  0--0-0-0-0--0-0-0-0--0-0-0-0--3--3-3-3-3--3-3-3-3--3-3-3-3----------
   *strum lightly

then
  2--2-2-2-2--2-2-2-2--2-2-------------------------------
  3--3-3-3-3--3-3-3-3--3-3-------------------------------
  4--4-4-4-4--4-4-4-4--4-4-------------------------------
  4--4-4-4-4--4-4-4-4 -4-4-4--4-4-4-4\5-5-5-5------------
  2--2-2-2-2--2-2-2-2--2-2-2--2-2-2-2\3-3-3-3------------
  0--0-0-0-0--0-0-0-0--0-0-------------------------------

verse without light strumming

chorus
Comments