A Perfect Circle - Gravity Chords & Tabs

 

Gravity Chords & Tabs

A Perfect Circle Chords & Tabs

Version: 1 Type: Tab 0 ratings
1 star 2 stars 3 stars 4 stars 5 stars
comments

Gravity Tab

hey this might not be that correct but seeings as there ain't ne other gravity tabs on
the net i thought i would put it down as a start maybe u can figure the rest out.
Plz e-mail me at parallels@hotmail.com for ne concerns. ENJOY!

tuning: 1 1/2 steps down!

intro x6
|-----------------------------------------------------------------------|
|-----------------------------------------------------------------------|
|--------7-------------7----------------------7-------------------------|
|-9-9-9-------9-9-9-9-----------7-9-10-9-9-9----------------------------|
|-----------------------------------------------------------------------|
|-----------------------------------------------------------------------|

verse (not sure of strumming just listen)
|-----------------------------------------------------------------------|
|-----------------------------------------------------------------------|
|---------7--------7-----------7------------7--------------7------------|
|-------9---9----9---9-------9---9--------9---9----------9---9----------|
|-----7-------7---------7------------7-------------7--------------------|
|-----------------------------------------------------------------------|
[ Tab from: http://www.guitartabs.cc/tabs/a/a_perfect_circle/gravity_tab.html ]
chorus
I am surrendering to the gravity and the unknown (seems crap but just basic chords)
|--------------------------------------------------------------------------|
|--------------------------------------------------------------------------|
|--------9----------7-----------------9------------------------------------|
|--------9----------7--------7--------9------------------------------------|
|--------7----------5--------7--------7------------------------------------|
|----------------------------5---------------------------------------------|

bridge
|------------------------------------------------------------------------|
|----------12---12--12--12-------12---10---------------------------------|
|---------------------------9--------------------------------------------|
|------------------------------------------------------------------------|
|------------------------------------------------------------------------|
|------------------------------------------------------------------------|

|------------------------------------------------------------------------|
|------------------------------------------------------------------------|
|------------------------------------------------------------------------|
|------------5------------5--------------5-------------------------------|
|----7-7-7------7-7-7-7------5-7-8-7-7-7---------------------------------|
|------------------------------------------------------------------------|
Comments