A Perfect Circle - Choke Chords & Tabs

 

Choke Chords & Tabs

A Perfect Circle Chords & Tabs

Version: 1 Type: Bass Tab

Choke Bass Tab

I have no idea why someone hasnt put this tab through yet so I decided id do it. Its a
wicked good song so if you dont have it, download it. Just get the timing right. E-mail
me if any questions. Boy8@comcast.net

Come in at 0:24
G|---------------------------------------|
D|---------------------------------------|x12 Yes that says 12.
A|---------------------------------------|
E|-000000-5555555555-666666-5555555555---|

Chorus
G|---------------------------------------|
D|---------------------------------------|x2
A|---------------------------------------|
E|-0-00-5-55-5-5-6-66-5-55-5-5-----------|

G|---------------------------------------|
D|---------------------------------------|
A|---------------------------------------|
E|-000000-5555555555-666666-5555555555---|

G|---------------------------------------|
D|---------------------------------------|
A|---------------------------------------|
E|-000000-5555555555-66-55---------------|
[ Tab from: http://www.guitartabs.cc/tabs/a/a_perfect_circle/choke_btab.html ]
G|---------------------------------------|
D|---------------------------------------|x7
A|---------------------------------------|
E|-000000-5555555555-666666-5555555555---|

G|---------------------------------------|
D|---------------------------------------|
A|---------------------------------------|
E|-000000-5555555555-6-6-5-5-------------|

Chorus
G|---------------------------------------|
D|---------------------------------------|x4
A|---------------------------------------|
E|-00-00-55-55-5-5-66-66-55-55-5-5-------|

G|---------------------------------------|
D|---------------------------------------|x5
A|---------------------------------------|
E|-5-55-55-55-55-5-0-00-00-00-00-0-------|

G|---------------------------------------|
D|---------------------------------------|
A|---------------------------------------|
E|-5-55-55-55-55-5-0-0-0-r-0-0-0---------|

G|---------------------------------------|
D|---------------------------------------|x3
A|---------------------------------------|
E|-000-5-55-55-55-666-55-55-55-5---------|

G|---------------------------------------|
D|---------------------------------------|
A|---------------------------------------|
E|-000-5-55-55-55-666-6-6-5-5------------|