A Perfect Circle - Brena Chords & Tabs

 

Brena Chords & Tabs

A Perfect Circle Chords & Tabs

Version: 3 Type: Tab 0 ratings
1 star 2 stars 3 stars 4 stars 5 stars
comments

Brena Tab

 3:20
 e----10--9---------------------|
 B------------7-----------------|
 G------------------------------|
 D------------------------------|
 A------------------------------|
 D------------------------------|

 e---------------------------------------|
 B-------------8--7---8--7---------------|
 G---7--9--7----------------9---9--7--6--|
 D---------------------------------------|
 A---------------------------------------|
 D---------------------------------------|

 3:29
 e-----9--8--7------------------|
 B--------------10--8--7--8--7--|
 G------------------------------|
 D------------------------------|
 A------------------------------|
 D------------------------------|

 e------------------------------|
 B------------------------------|
 G--9~-9--7---------------------|
 D------------9-----------------|
 A------------------------------|
 D------------------------------|

 next run not exact
[ Tab from: http://www.guitartabs.cc/tabs/a/a_perfect_circle/brena_tab_ver_3.html ]
 3:33
 e----------------------------------------------|
 B----------------------------------------------|
 G------------7--6--7--6-------7--6-------------|
 D------7--9--------------7--9-------7--9-7--9--|
 A--/-9-----------------------------------------|
 D----------------------------------------------|

 3:36
 e----------------------------------------|
 B----------------------------------------|
 G----------7--6-------------9--7---------|
 D--7--9--x------9---7--9--x------9-------|
 A----------------------------------------|
 D----------------------------------------|

                      3:42
 e------------------------------|
 B------------------------------|
 G---------6--7-----------------|
 D---7--9-------9---------------|
 A------------------7^9--9~-----|
 D------------------------------|

 e------------------------------|
 B------------------------------|
 G------------------------------|
 D------------------------------|
 A------------------------------|
 D--9---12----5---7---9---------|
Comments