A New Beginning - The Forgotten Chords & Tabs

 

The Forgotten Chords & Tabs

A New Beginning Chords & Tabs

Version: 1 Type: Tab 0 ratings
1 star 2 stars 3 stars 4 stars 5 stars
comments

The Forgotten Tab

---------------------------------------------------------------------------------
------------2-----------------------2-----------------------2--------------------
------2--------4--2------------2-------4--2-----------2--------4--2--------------
4--4-----4----------------3--3----3-------------2--2------2----------------------
----------------------------------------------------------------------------------
----------------------------------------------------------------------------------



----------------------------------------------
----------------------------------------------
------2--------4--------5b-------------------
0--0-----0--0-----0--0------------------------    played twice
----------------------------------------------
----------------------------------------------

this part is palmed.....
------------------------------------------------------------------
------------------------------------------------------------------
2--2--2--2--2--2--2--2---2--2--2--2--2--2--2--2---2--2--2--2--2---
4--4--4--4--4--4--4--4---3--3--3--3--3--3--3--3---2--2--2--2--2---
------------------------------------------------------------------
------------------------------------------------------------------


-------------------------------------------------
-------------------------------------------------
2--2--2--2---2--2--2--2--2--2--2--2----
2--2--2--2---0--0--0--0--0--0--0--0----   play 2X
--------------------------------------------------
--------------------------------------------------
[ Tab from: http://www.guitartabs.cc/tabs/a/a_new_beginning/the_forgotten_tab.html ]
This part is NOT palmed...

----------------------------------------------------------------
-----------------------------------------------------------------
2--2--2--2--2--2--2--2---2--2--2--2--2--2--2--2---2--2--2--2--2
4--4--4--4--4--4--4--4---3--3--3--3--3--3--3--3---2--2--2--2--2
----------------------------------------------------------------
----------------------------------------------------------------


-------------------------------------------------
-------------------------------------------------
2--2--2--2---2--2--2--2--2--2--2--2----
2--2--2--2---0--0--0--0--0--0--0--0----   play 4X
--------------------------------------------------
--------------------------------------------------

then it goes like this... hold everyt note. 
-----------------------------------
-----------------------------------
6-----2------6------------------
6-----2------6--------5--------
4-----0------4--------5--------
----------------------3--------

let ring then play....

------------------------------------------------------------------
----------2--------------------2--------------------2-------------
----2--------2-----------2--------2-----------2--------2--------
-4-----4---------4-----3----3--------3-----2-----2---------2--
------------------------------------------------------------------
------------------------------------------------------------------

-----------------------
----------2-------------
---2----------2--------
0-----0-----------0---
----------------------
-----------------------

finished! thats all its all corect.
Comments