A Lot Of Several Many Cuestions - Bullet In Me Chords & Tabs

 

Bullet In Me Chords & Tabs

A Lot Of Several Many Cuestions Chords & Tabs

Version: 1 Type: Tab 0 ratings
1 star 2 stars 3 stars 4 stars 5 stars
comments

Bullet In Me Tab

This is the tab for a song we wrote..
I don't know if you will hear about us.. but we will try to be famous

A lOT OF sEVERAL MANY CUESTIONS

Bullet In Me

INTRO
e/-----------------------------------------------------------------2--
b/-----7---8----7---8---7---------5---6---5---6---5---6---5---6----T--
g/---9---9----9---9---9---9-----7---7---7---7---7---7---7---7------i--
d/-----------------------------------------------------------------m--
a/-----------------------------------------------------------------e--
e/-----------------------------------------------------------------s--


e/--------------------------------------------------------------------
b/-----3---4---3---4---3---4---3---4--4--4----4/6--6----6-------------
g/---5---5---5---5---5---5---5---5----5----5--5/7-----7---7-----------
d/--------------------------------------------------------------------
a/--------------------------------------------------------------------
e/--------------------------------------------------------------------
[ Tab from: http://www.guitartabs.cc/tabs/a/a_lot_of_several_many_cuestions/bullet_in_me_tab.html ]
RIFF
e/---------------------------------------2--
b/-----7---8---7---8---7---8---7---8-----T--
g/---9---9---9---9---9---9---9---9-------i--
d/---------------------------------------m--
a/---------------------------------------e--
e/---------------------------------------s--

Verse 
-/------------------------------------------------------------------------2--
-/-----7---8---7---8---7---8---7---8-----5---6---5---6---5---6---5---6----t--
-/---9---9---9---9---9---9---9---9-----7---7---7---7---7---7---7---7------i--
-/------------------------------------------------------------------------m--
-/------------------------------------------------------------------------e--
-/------------------------------------------------------------------------s--

-/----------------------------------------2--
-/-----3---4---3---4---3---4---3---4------t--
-/---5---5---5---5---5---5---5---5--------i--
-/----------------------------------------m--
-/----------------------------------------e--
-/----------------------------------------s--

-/---------------------------------------------------------------
-/-----4-4----4/6--6---6----6--6----6/8--8---8-----8-8-8---------
-/-----5---5--5/7----7---7--7----7--7/9----9---9---9-9-9---------
-/---------------------------------------------------------------
-/---------------------------------------------------------------
-/---------------------------------------------------------------

AND SO ON..
ITS JUST THE BEGINNING
Comments