A Ha - Take On Me Chords & Tabs

 

Take On Me Chords & Tabs

A Ha Chords & Tabs

Version: 4 Type: Tab

Take On Me Tab

e|-222----------44-5-7-55-5/4-----22-2----2------------------|
B|-----3---55-5----------------5-3------55---5---------------|X2
G|------4----------------------------------------------------|
D|-----------------------------------------------------------| 
A|-----------------------------------------------------------|
E|-----------------------------------------------------------|
[ Tab from: http://www.guitartabs.cc/tabs/a/a_ha/take_on_me_tab_ver_4.html ]
e|-222----------44-5-7-55-5/4-----22-2--000------------------|
B|-----3---55-5----------------5-3---------------------------|
G|------4----------------------------------------------------|
D|-----------------------------------------------------------|
A|-----------------------------------------------------------|
E|-----------------------------------------------------------|

CREO QUE ESTA BIEN PERO HAY Q HACERLE UNOS ARREGLOS IGUAL SUENA  
QUE LA DISFRUTEN